Oops, an error
Loading. Please wait.

Lunar Sea tab

version 1
version 1

Whole song

2,225 views 1 this week
3 commentsread comments
1 2 3 4 5
1 last vote to show rating
add to favorites
×
Save as Personal and add changes to this tab that will be seen only by you. Learn more ›
×
You can save this tab as Personal to edit and correct it or add notes. All changes will be seen only by you. Learn more »
launch autoscroll
font size
0
reset
how to read this tab
guitar tuner
edit
Autoscroll
slow
fast
+/-
esc
set tempo
stop
Author
Artist: Camera Obscura
Song: Lunar Sea
Album: Underachievers Please Try Harder
Tabbed by: Don Tago
Email: recebedou@yahoo.com

Standard Tuning


Chords Used:
  EADGBe
D:000232
G:320033


Intro Riff w/chords:
    D                                 G
e|------5-7---5---5------5-7---5---5--------0---------------0-----------|
B|----7---------7------7---------7------0-3-----3-0-3---0-3-----3-0-3---|
G|--7----------------7----------------0---------------0-----------------|
D|----------------------------------------------------------------------|
A|----------------------------------------------------------------------|
E|----------------------------------------------------------------------|

Accompaniment w/ Intro Riff (AIR):
e|-----------------------|
B|--10p7---10p7---10p7---| repeat over and over:
G|-------7------7------7-|
D|-----------------------|
A|-----------------------|
E|-----------------------|


Intro: [Intro Riff]x1
       [Intro Riff w/ AIR] x1
       [Intro Riff w/ AIR during last G note measure] x2
       [Intro Riff]x2
    

Verse 1 chords: [play Intro Riff along with chords]
        D                                    G
For the Lunar sea see the river moon and you got it 
          D                                         G [w/ AIR]
Match the finest words to the greatest tune and you bought it 
       D                                          G
See me cross in style, walk the longest mile in a minute
         D                                           G [w/ AIR]
Where do drifters go? Wonder if they know there’s no limit 


Interlude Riff: (repeat x2)
    D                                G
e|------5-10--5---5-17-5---5---------3--------------3-------------|
B|----7---------7--------7----7---7----2-0----0-3-0---2-0---0-3-0-|
G|--7---------------------------7----------0--------------0-------|
D|----------------------------------------------------------------|
A|----------------------------------------------------------------|
E|----------------------------------------------------------------|


Verse 2: (use verse 1 chord and riff structure)
At the rainbows end, find a perfect friend say you’re sorry 
Make me dream at night, break my heart on sight don’t you worry 
Swept the sounds of love from the skies above and I knew it 
Swim the seas of blue just to drown in you and I blew it 


Bridge: [play Interlude Riff along with chords]
    D                                       G             
You hear it, the shiver in spine don’t come near it 
  D                                  G
I love it, you soar and you cry rise above it 


Solo: [play Intro Riff along with Solo and w/chords]
         D                        G
e|-------------------------------------------------------------------|
B|-3/5-3-3/7b7b--5—5/3--3-3h5-3-5-----3--3-----3-----3-----3-3/5-3---|
G|----------------------------------4------0h4---0h4---0h4-----------| then,
D|--------------------------------5----------------------------------|
A|-------------------------------------------------------------------|
E|-------------------------------------------------------------------|

    D                            G
e|------5---3-5-5-7-9-9-10-12-12/14-------------------------|
B|--3/7-----------------------------12/14/12---12-12-11-10--| then,
G|----------------------------------------------------------|
D|----------------------------------------------------------|
A|----------------------------------------------------------|
E|----------------------------------------------------------|

   D                         G
e|------------------------------2------|
B|-----14--14-------14----------3------|
G|-----14--14-14-------14----0--0------| then,
D|-----12--12----12-------12-----------|
A|-------------------------------------|
E|-------------------------------------|

   D                   G
e|----2---2-----3-5-9---------|
B|----3---3-3----------14--12-|
G|----2---2---2--------14-----|
D|-0--0---0------------12-----|
A|----------------------------|
E|----------------------------|



Verse 3: (use verse 1 chord and riff structure)
Got my lunar sea for you’re river moon if you let it 
Match my finest words to your greatest tune, won’t forget it 


Bridge: [play Interlude Riff along with chords]
You hear it, the shiver in spine don’t come near it 
I love it, you soar and you cry rise above it


Outro: [play Intro Riff along with chords](repeat ‘til fadeout)
D                 G [w/ AIR] 
Fly by lunar sea lullaby

            
            
Suggest correction
Creating personal tab
Creating personal tab
You can edit any tab online and save it as your Personal.

You can edit, replace or remove any tab part or add personal notes – all changes will be seen only by you.

Personal tabs can be accessed anytime from any device, even offline.
Learn more »
Give kudos to tab author, rate the tab!
1 2 3 4 5
comments
print report bad tab
3 comments total.
0 reply
jason_hilton 102 Dec 12, 2009 03:23 AM

Lovely.

Find it slightly easier like this though.

e|------------0-----------------------------0-----------
B|--------10-----10-----10--------------3--------3--------3---
G|------11----------11-------------4-----------------4--------
D|---12------------------------5------------------------------
A|------------------------------------------------------------
E|------------------------------------------------------------

0 reply
zmster 41 Jun 06, 2010 12:07 AM

the bit in the solo where you go

D G
e|----2---2-----3-5-9---------|
B|----3---3-3----------14--12-|
G|----2---2---2--------14-----|
D|-0--0---0------------12-----|
A|----------------------------|
E|----------------------------|

I think it's actually

D G
e|-----------2---2-----3-5-9---------|
B|-----------3---3-3----------14--12-|
G|-----------2---2---2--------14-----|
D|---------0-0---0------------12-----|
A|-0-0h2-0---------------------------|
E|-----------------------------------|

Just a small thing. And I agree with jason_hilton, there's nothing wrong with the tab up there but it's much easier played like that.

0 reply
zmster 41 Jun 06, 2010 12:12 AM

Oh, and I've got another alternative for this bit:

D G
e|------------------------------2------|
B|-----14--14-------14----------3------|
G|-----14--14-14-------14----0--0------|
D|-----12--12----12-------12-----------|
A|-------------------------------------|
E|-------------------------------------|

You can try doing

D G
e|-----9---9--------------------2------|
B|-----10--10-10----10----------3------|
G|-----11--11-11-------11----0--0------|
D|-12--12--12----12--------------------|
A|-------------------------------------|
E|-------------------------------------|

guest
You may want to rate the tab now too:
select rating
Wanna post a correction for this tab? Suggest correction