Oops, an error
Loading. Please wait.

Bordado tab

97 views 1 this week
no commentswrite comment
1 2 3 4 5
3 more votes to show rating
add to favorites
×
Save as Personal and add changes to this tab that will be seen only by you. Learn more ›
×
You can save this tab as Personal to edit and correct it or add notes. All changes will be seen only by you. Learn more »
launch autoscroll
font size
0
reset
how to read this tab
guitar tuner
edit
Autoscroll
slow
fast
+/-
esc
set tempo
stop
Les dejo este gran tema de la Camila, espero que les guste.
La saqué de una versión acústico que está en youtube.

Cualquier corrección a milvecesfelipe@

Las notas raras no se si existan con esos nombres pero las dejo así para mayor
facilidad
Saludos.

F1

e ------------------------------------
b ------------------------------------
g ---0---0---0---0---0---0---0---0----
d ----0---0---0---0---0---0---0---0---
a --5---5---4---4---2---2-------------
E -3---3---3---3---0---0---1---2------


F2


e -----------------------------------------------------------------------
b -3---3---3---2---2---2---5---5---5---3---3---3---3---3---3---2---2---2-
g -----------------------------------------------------------------------
d -----------------------------------------------------------------------
a -----------------------------------------------------------------------
E --3-3-3-3-3-3-3-3-3-3-3-3-3-3-3-3-3-3-3-3-3-3-3-3-3-3-3-3-3-3-3-3-3-3-3

e --------------------------
b --0---0---0---2---2---2---
g --------------------------
d --------------------------
a --------------------------
E -3-3-3-3-3-3-3-3-3-3-3-3--

F3

e--------------------------------------------------------
b--------------------------------------------------------
g--4-2--------------0---0---0---0---0---0---0---0--------
d------4-2-----------0---0---0---0---0---0---0---0-------
a----------4---5---5---5---4---4---2---2-----------------
E-----------------3---3---3---3---0---0---1---2----------


SOL/DO#

E--3---
B-----
G-----
D-----
A--4---
E--3---


FA/FA#m

e--1----
b--1----
g--1----
d--3----
a--3----
E--2----


F1

Vente a cazar y espera
La presa que no se vaya ni se duerma
No lograrás amarme
Tengo los tigres en mi sangre
En este tiempo estamos todos
Unidos
Acordonados al vacío

F2

El ya no me llama
Se asustó de mí
Quizás que tormenta
Vió él venir
El ya no me llama
Se asustó de mí
Quizás que tormenta
Vió él venir
Remolinos...Torbellinos
Remolinos...
Remolinos...Torbellinos
Remolinos...

F3

Estoy sola, nadie viene a coserme
Las heridas que han dejado
Tendrán que hacerme un bordado
Tendrán que hacerme un bordado...
SOL                    SOL/DO#
Tendrán que hacerme un bordado
MIm                    FA      FA/FA#m
Tendrán que hacerme un bordado...

SOL                    SOL/DO#
¿El plomo que no alcanza?
MIm         FA      FA/FA#m
En la carne se metió
SOL                    SOL/DO#
Su voz me llena de balas
MIm         FA      FA/FA#m
Mi cuerpo atravesó
SOL             SOL/DO#
Yo no he de enamorarme
MIm                FA      FA/FA#m
De quién no me corresponda
SOL          SOL/DO#
Alejarme, descuidarme
MIm         FA      FA/FA#m
De esos ardores
MIm              FA      FA/FA#m
De esos ardores

SOL        REm
Tu amor me arde
DO             FA       SOL
Golpéa y mueve mi sangre
SOL          REm
Y yo sabré sacarme
DO                FA     SOL
Todo este cuero insensible

SOL                      REm
En este tiempo estamos todos
DO
Unidos
FA          FA/FA#m
Acordonados al vacío
SOL          REm
Ya no me da miedo
DO      FA   SOL
Noo
SOL        REm
Tu amor me arde
DO            FA   SOL
Golpéa y arde mi sangre
SOL        REm
Y yo sabré sacarme
DO               FA      SOL
Todo este cuerpo insensible

SOL                      REm
En este tiempo estamos todos
DO
Unidos
FA          SOL
Acordonados al vacío
SOL      REm  DO
Ya no me da  miedo
FA FA/FA#m SOL
No    o     o
SOL    REm
Miedo no...
       DO
Miedo no...
FA FA/FA#m SOL
No    o     o

            
            
Suggest correction
Creating personal tab
Creating personal tab
You can edit any tab online and save it as your Personal.

You can edit, replace or remove any tab part or add personal notes – all changes will be seen only by you.

Personal tabs can be accessed anytime from any device, even offline.
Learn more »
Give kudos to tab author, rate the tab!
1 2 3 4 5
comments
print report bad tab
guest
Wanna post a correction for this tab? Suggest correction