Oops, an error
Loading. Please wait.

Doble Filo chords

version 2
version 2

Whole song

17 views 1 this week
no commentswrite comment
1 2 3 4 5
3 more votes to show rating
add to favorites
×
Save as Personal and add changes to this tab that will be seen only by you. Learn more ›
×
You can save this tab as Personal to edit and correct it or add notes. All changes will be seen only by you. Learn more »
launch autoscroll
font size
0
reset
transpose
0
reset
simplify chords
display chords
guitar tuner
edit
Autoscroll
slow
fast
+/-
esc
set tempo
stop
Strumming
There is no strumming pattern for this song yet. and get +5 IQ
INTRO

|---------0-------0--------0-------0--
|-------------------------------------
|----1h2-----1h2-------1h2----1h2-----
|-0------------------2----------------
|-------------------------------------
|-------------------------------------

|--------0-------0---------0-------0--
|-------------------------------------
|---1h2-----1h2-------1h2-----1h2-----
|-------------------------------------
|-0-----------------4-----------------
|-------------------------------------

|---------0------0--------0--------0--
|-------------------------------------
|----1h2----1h2-------1h2-----1h2-----
|-0----------------2------------------
|-------------------------------------
|-------------------------------------

|--------0--------0-------
|-------------------------
|---1h2------1h2----------
|-0--------------------2--
|-------------------------
|-------------------------


*SE SIGUE CON EL MISMO ARPEGIO, O TAMBIÉN SE PUEDE HACER CON ESTOS ACORDES


         D9          E
Desde el borde mi cama
        A9             F#m
Caigo y vuelvo y despertar
       D9            E
Siento como el aire aprieta
     A9               F#m
Cada vez que quiero hablar

      D9           E
No puedo decirte nada
        A9         F#m
Que nos pueda lastimar
       D9                E
Porque se que el doble filo
         A9         F#m   D9  E  D9 E
Siempre ataca por detrás

CORO:
           A9
Te quiero amar
      D           E            A9  F#m
Tengo miedo de cansarme de esperar
      D             E        F#m
De quererte siempre cada día más
      D              E          A9  F#m       E
De sentir que no me puedo controlar      uhhooohh

          A9
Te quiero dar
       D            E        A9  F#m
Más de lo que te puedas imaginar
          D             E            F#m
Que estés en mis sueños y en mi realidad
    D              E
Y tenerte aquí por siempre eeeehh


|---------0-------0--------0-------0--
|-------------------------------------
|----1h2-----1h2-------1h2----1h2-----
|-0------------------2----------------
|-------------------------------------
|-------------------------------------

|--------0-------0---------0-------0--
|-------------------------------------
|---1h2-----1h2-------1h2-----1h2-----
|-------------------------------------
|-0-----------------4-----------------
|-------------------------------------


     D9                E
Lo supe desde el comienzo
      A9        F#m
Te lo debo confesar
    D9         E
Equivocarme contigo
        A9          F#m
Siempre fue mi voluntad

       D9              E
Te quiero decir te quiero
    A9          F#m
Y besarte de verdad
     D9              E
Pero se que el doble filo
         A9         F#m   D  E  D  E
Siempre ataca por detrás

CORO:
            A9
Te quiero amar
      D           E            A9   F#m
Tengo miedo de cansarme de esperar
      D             E        F#m
De quererte siempre cada día más
      D             E           A9  F#m       E    Bm
De sentir que no me puedo controlar      uhhooohh


             E         Bm
Aunque no estás aquí,
           E           Bm
Yo sigo pensando en ti
               E           D   Esus2 E
Pensando en el beso que te dí


          A9
Te quiero dar
       D            E        A9  F#m
Más de lo que te puedas imaginar
          D             E            F#m
Que estés en mis sueños y en mi realidad
    D              E        D9  E  A9 F#m D9 E
Y tenerte aquí por siempre
        D9 E
por siempree

            
            
Suggest correction
Creating personal tab
Creating personal tab
You can edit any tab online and save it as your Personal.

You can edit, replace or remove any tab part or add personal notes – all changes will be seen only by you.

Personal tabs can be accessed anytime from any device, even offline.
Learn more »
Give kudos to tab author, rate the tab!
1 2 3 4 5
comments
print report bad tab
guest
Wanna post a correction for this tab? Suggest correction