Oops, an error
Loading. Please wait.

Quieres Ser Mi Amante tab

version 1
version 1

Whole song

163 views 3 this week
no commentswrite comment
1 2 3 4 5
3 more votes to show rating
add to favorites
×
Save as Personal and add changes to this tab that will be seen only by you. Learn more ›
×
You can save this tab as Personal to edit and correct it or add notes. All changes will be seen only by you. Learn more »
launch autoscroll
font size
0
reset
how to read this tab
guitar tuner
edit
Autoscroll
slow
fast
+/-
esc
set tempo
stop
Primero que todo debo aclarar que el tono original de la cancion es en Fa menor,
y que la transcripcion anterior de Roel Ramirez, esta practicamente perfecta, solo
estoy adicionando la introduccion, los solos y unos acordes ,que note al escuchar
la cancion que hacian falta. Pueden tocarla de 3 formas, en Em, Em# con cejuela en el
primer traste para mayor comodidad, o sino tienen la cejuela toquen en Fm, Disfrutenla.
Dedico esta canción a una amiga muy especial, Monica, de la cual aprendi mucho, T.Q.M.


    ACORDES                 ACORDES                       ACORDES
Tono Mi menor(Em)  Tono Mi menor sostenido(Em# o Fm)  Tono Fa menor(Fm)
                         (Con Cejuela)                  (Sin Cejuela)

Em    133111             Em#    133111                  Fm     133111
B7    X35353             B7#    132313                  C7     X35353
D7    XX1323             D7#    X11323                  Eb7    X11323
Am    131211             Am#    113321                  Bbm    113321
Am7   X13121             Am7#   X13121                  Bbm7   X13121
Em7M  032110             Em7M#  132111                  Fm7M   132111
E7    131211             E7#    131211                  F7     131211
Cmaj7 X33121             Cmaj7# X33121                  C#maj7 X33121
G     320003             G#     431114                  G#     466544


Intro

    Fm                                      C7
 e]-------------------------------8--13-8---------------]
 B]---9-9-9--9-8--------8-9--9-11---------9-11--9-8-----]
 G]--------------10--10---------------------------------]
 D]-----------------------------------------------------]
 A]-----------------------------------------------------]
 E]-----------------------------------------------------]
    Fm                                        C7
 e]-------------------------------8--13-8---------------]
 B]---9-9-9--9-8--------8-9--9-11-----------9--11--9--8-]
 G]--------------10--10---------------------------------]
 D]-----------------------------------------------------]
 A]-----------------------------------------------------]
 E]-----------------------------------------------------]


 Fm
Decir te quiero decir amor
             C7
no significa nada,
 Fm
las palabras sinceras, las que tienen valor
                  Eb7      Bbm7
son las que salen del alma
             Fm   Fm7   C7
y en mi alma nacen
               Fm  F7 Bbm
solo palabras blancas
          Fm      Fm7   C7
preguntas sin respuesta
              Fm
llenas de esperanza


    Fm
Un amor como el mio no se puede ahogar
          C7
como una piedra en un rio
    Fm
un amor como el mio no se puede acabar
           Eb7             Bbm7
ni estando lejos te olvido
                 Fm  Fm7   C7
y no se puede quemar
                      Fm  F7 Bbm
porqué está hecho de fuego
               Fm   Fm7   C7
ni perder ni ganar
                 Fm
porque este amor no es un juego


C#maj7     Eb7  G#
sueños que son amor
C#maj7         Eb7  G#
son sueños que son  dolor
C#maj7   Eb7  G#    Bbm7       Bbm      C7
y yo necesito saber si quieres ser mi amante


     Fm
Es bonito reir, amar y vivir
     C7
todo por alguien
     Fm
y si es preciso sufrir, llorar o morir
    Eb7         Bbm7
por ese alguien
            Fm   Fm7   C7
Yo necesito saber
                   Fm  F7 Bbm
si quieres ser mi amante
            Fm   Fm7   C7
yo necesito saber
               Fm
si quieres ser mi amante

C#maj7     Eb7  G#
sueños que son amor
C#maj7         Eb7  G#
son sueños que son  dolor
C#maj7   Eb7  G#   Bbm7        Bbm     C7
y yo necesito saber si quieres ser mi amante


Solo

    Fm                                       C7
 e]-------------------------------8--13-8---------------]
 B]------8-9--9-8--------8-9--9-11---------9-11--9-8----]
 G]---10----------10--10--------------------------------]
 D]-----------------------------------------------------]
 A]-----------------------------------------------------]
 E]-----------------------------------------------------]

    Fm                                       Eb7
 e]-------------------------------8--13-8---------------]
 B]------8-9--9-8--------8-9--9-11---------9-11--9-8----]
 G]---10----------10--10--------------------------------]
 D]-----------------------------------------------------]
 A]-----------------------------------------------------]
 E]-----------------------------------------------------]


    Bbm7         Fm  Fm7   C7              Fm   F7  Bbm

 e]----9-9-9--11-9-8------------------------------------]
 B]--------------------------8-8-8-8-9--11-8------------]
 G]------------------------------------------10---------]
 D]-----------------------------------------------------]
 A]-----------------------------------------------------]
 E]-----------------------------------------------------]

    Bbm         Fm  Fm7   C7              Fm

 e]------9-11-9-8---------------------------------------]
 B]----------------------------8-8-8-9--8-8-------------]
 G]-----------------------------------------10----------]
 D]-----------------------------------------------------]
 A]-----------------------------------------------------]
 E]-----------------------------------------------------]

     Fm
Es vivir o morir, vivir o morir
        C7
Pero contigo,
     Fm
Es vivir o morir, vivir o morir
                Eb7
Quieres ser mi amante...

            
            
Suggest correction
Creating personal tab
Creating personal tab
You can edit any tab online and save it as your Personal.

You can edit, replace or remove any tab part or add personal notes – all changes will be seen only by you.

Personal tabs can be accessed anytime from any device, even offline.
Learn more »
Give kudos to tab author, rate the tab!
1 2 3 4 5
comments
print report bad tab
guest
Wanna post a correction for this tab? Suggest correction