Oops, an error
Loading. Please wait.

Jet Fuel Cant Melt Steel Beams bass

592 views 18 this week
no commentswrite comment
1 2 3 4 5
3 more votes to show rating
add to favorites
×
Save as Personal and add changes to this tab that will be seen only by you. Learn more ›
×
You can save this tab as Personal to edit and correct it or add notes. All changes will be seen only by you. Learn more »
launch autoscroll
font size
0
reset
guitar tuner
edit
Autoscroll
slow
fast
+/-
esc
set tempo
stop
Author
this may not be 100% accurate, but Kelly said it was great when i covered it so ¯\_(ツ)_/¯

the second riff is repeated in place of the original after the first verse and breakdown.

[first riff] (intro, verse)
G|---------------------------------------------------------------------------|
D|----------------------2-----2--4--2--4--6--4-------------------------------|
A|--2----2--2--4--2--4-----4-------------------------------------------------|
E|---------------------------------------------------------------------------|

[second riff] (starts at: hearing catcalls...)
G|---------------------------------------------------------------------------|
D|--6--4--6--4--2--4--2-----------2------------------------------------------|
A|-----------------------4--4--4-----4--2--2--2--4---------------------------|
E|---------------------------------------------------------------------------|

[...calling this a breakdown idk] (starts at: they say the only thing that stops...)
G|---------------------------------------------------------------------------|
D|--6---6--6--6--4---2--2--4--4--2--------2-----------2----------------------|
A|----------------------------------4--4-----4--4--4-------------------------|
E|---------------------------------------------------------------------------|

G|---------------------------------------------------------------------------|
D|--6--6--6--4--4--4--6--4--2--2--2--4--4--4--2--------------2--2--2---------|
A|-----------------------------------------------4--4--4--4-----------4--4--4|
E|---------------------------------------------------------------------------|

G|---------------------------------------------------------------------------|
D|---------------------------------------------------------------------------|
A|--4--2--2--2--4------------------------------------------------------------|
E|---------------------------------------------------------------------------|

            
            
Suggest correction
Creating personal tab
Creating personal tab
You can edit any tab online and save it as your Personal.

You can edit, replace or remove any tab part or add personal notes – all changes will be seen only by you.

Personal tabs can be accessed anytime from any device, even offline.
Learn more »
Give kudos to tab author, rate the tab!
1 2 3 4 5
comments
print report bad tab
guest
You may want to rate the tab now too:
select rating
Wanna post a correction for this tab? Suggest correction