Oops, an error
Loading. Please wait.

Eye Of Fatima chords

3,901 views 6 this week
3 commentsread comments
1 2 3 4 5
x 8
add to favorites
×
Save as Personal and add changes to this tab that will be seen only by you. Learn more ›
×
You can save this tab as Personal to edit and correct it or add notes. All changes will be seen only by you. Learn more »
launch autoscroll
font size
0
reset
transpose
0
reset
display chords
guitar tuner
edit
Autoscroll
slow
fast
+/-
esc
set tempo
stop
Author
Difficulty
Strumming
There is no strumming pattern for this song yet. and get +5 IQ
INTRO:
G E (x2)
F C G A#m D

 --------------------------------8--
B -------------------------6-5---(5)-
G ---------------------5-7-----5-(5)-
D ---------------3-5s7---------------
A -----------3-5---------------------
E -1---1-3s5-------------------------

   G       F         D                                  G
E -----------13--------10------14-12-----------------------
B ------------------------------------15-13-12-------------
G -12---12s14------9s11---11s14----------------14-12-11-12-
D ---------------------------------------------------------
A ---------------------------------------------------------
E ---------------------------------------------------------


G                                 Em
He's got the Eye of Fatima on the wall of his room.
    G                          Em
Two bottles of tequila, three cats and a broom.
            F
He's got an 18-year-old angel
             C
and she's all dressed in black.
            G          F                   D
He's got 15 bindles of cocaine tied up in a sack.

And this here's a government experiment
and we're driving like Hell.
To get some cowboys some acid and to stay in motels.
We're going to eat up some wide open spaces
Like it was a cruise on the Nile.
Take the hands off the clock,
we're going to be here a while.

And I am the Eye of Fatima
on the wall of the motel room.
And cowboys on acid are like Egyptian cartoons.
And no one ever conquered Wyoming
from the left or from the right.
But you can stay in motel rooms and stay up all night. 

            
            
Suggest correction
Creating personal tab
Creating personal tab
You can edit any tab online and save it as your Personal.

You can edit, replace or remove any tab part or add personal notes – all changes will be seen only by you.

Personal tabs can be accessed anytime from any device, even offline.
Learn more »
comments
print report bad tab
3 comments total.
0 reply
mr_salty 65 Feb 16, 2011 07:32 PM

Intro/Riff Tab...

on F:
F C
E --------------------------------8--
B -------------------------6-5---(5)-
G ---------------------5-7-----5-(5)-
D ---------------3-5s7---------------
A -----------3-5---------------------
E -1---1-3s5-------------------------

G F D G
E -----------13--------10------14-12-----------------------
B ------------------------------------15-13-12-------------
G -12---12s14------9s11---11s14----------------14-12-11-12-
D ---------------------------------------------------------
A ---------------------------------------------------------
E ---------------------------------------------------------

In the original chords the E's should be Em's and the Bbm's should be F's - otherwise it looks good.

0 reply
huffgas 128 Jun 25, 2014 06:54 PM

Nice! I'll add that to the tab! Thank you!

0 reply
huffgas 128 3 days ago

Thanks! I love this song!

guest
You may want to rate the tab now too:
select rating
Wanna post a correction for this tab? Suggest correction