Oops, an error
Loading. Please wait.

Dragon Ball Z Budokai Tenkaichi 4 tab

181 views 24 this week
no commentswrite comment
1 2 3 4 5
3 more votes to show rating
add to favorites
×
Save as Personal and add changes to this tab that will be seen only by you. Learn more ›
×
You can save this tab as Personal to edit and correct it or add notes. All changes will be seen only by you. Learn more »
launch autoscroll
font size
0
reset
how to read this tab
guitar tuner
edit
Autoscroll
slow
fast
+/-
esc
set tempo
stop
CAMPING IN ALASKA - DRAGON BALL Z BUDOKAI TENKAICHI 4
Tuning: DGDGbAe capo 2nd fret

(palm mute)
E  :--------------------|--------------------|--------------------|--------------------|
A  :--------------------|--------------------|--------------------|--------------------|
Gb :----0-0-0-----0-0-0-|----0-0-0-----0-0-0-|----0-0-0-----0-0-0-|----0-0-0-----0-0-0-|
D  :--0---0-0---0---0-0-|--0---0-0---0---0-0-|--0---0-0---0---0-0-|--0---0-0---0---0-0-|
G  :4---------2---------|0---------7---------|4---------2---------|0---------7---------|
D  :--------------------|----------0---------|--------------------|----------0---------|
and i know things get the best of you sometimes...
E  :----------------|----------------|----------------|-----------------|------------------|
A  :--0-----0-----0-|----0-----0-----|--2-----4-----5-|----7---9b-------|9b-----9b---------|
Gb :----------------|----------------|----1-----0-----|0-----0-0--------|0------0----------|
D  :----------------|----------------|----------------|--------0--------|0------0----------|
G  :----6-----6-----|6-----6-----6---|0-----0-----0---|--0--------------|------------------|
D  :7-----7-----7---|--7-----7-------|----------------|-----------------|------------------|
...please don't change...
(palm mute)
E  :----0-0-0-0-0-0-0-0-|0-0-0-0-0-0-0-0-0-0-|0-0-0-0-0-0-0-0-0-0-|0-0-0-0-0-0-0-0-0-0-|
A  :----0-0-0-0-0-0-0-0-|0-0-0-0-0-0-0-0-0-0-|0-0-0-0-0-0-0-0-0-0-|0-0-0-0-0-0-0-0-0-0-|
Gb :----0-0-0-0-0-0-0-0-|0-0-0-0-0-0-0-0-0-0-|0-0-0-0-0-0-0-0-0-0-|0-0-0-0-0-0-0-0-0-0-|
D  :--0---0-0-0-0-0-0-0-|0-0-0-0-0-0-0-0-0-0-|0-0-0-0-0-0-0-0-0-0-|0-0-0-0-0-0-0-0-0-0-|
G  :0---------0-0-0-0-0-|4-4-4-4-4-2-2-2-2-2-|0-0-0-0-0-0-0-0-0-0-|4-4-4-4-4-2-2-2-2-2-|
D  :--------------------|--------------------|--------------------|--------------------|
...i feel so guilty...
(palm mute)
E  :----------------|
A  :----------------|
Gb :0-0-0-0-0-0-0-0-|
D  :0-0-0-0-0-0-0-0-|
G  :0-0-0-0-0-0-0-0-|
D  :----------------|
(palm mute)
E  :--------------------|--------------------|--------------------|--------------------|
A  :--------------------|--------------------|--------------------|--------------------|
Gb :----0-0-0-----0-0-0-|----0-0-0-----0-0-0-|----0-0-0-----0-0-0-|----0-0-0-----0-0-0-|
D  :--0---0-0---0---0-0-|--0---0-0---0---0-0-|--0---0-0---0---0-0-|--0---0-0---0---0-0-|
G  :4---------2---------|0---------7---------|4---------2---------|0---------7---------|
D  :--------------------|----------0---------|--------------------|----------0---------|
...and i know ppl are full of shit sometimes...
E  :----------------|----------------|----------------|-----------------|------------------|
A  :--0-----0-----0-|----0-----0-----|--2-----4-----5-|----7---9b-------|9b-----9b---------|
Gb :----------------|----------------|----1-----0-----|0-----0-0--------|0------0----------|
D  :----------------|----------------|----------------|--------0--------|0------0----------|
G  :----6-----6-----|6-----6-----6---|0-----0-----0---|--0--------------|------------------|
D  :7-----7-----7---|--7-----7-------|----------------|-----------------|------------------|
...too late to change...
(palm mute)
E  :----0-0-0-0-0-0-0-0-|0-0-0-0-0-0-0-0-0-0-|0-0-0-0-0-0-0-0-0-0-|0-0-0-0-0-0-0-0-0-0-|
A  :----0-0-0-0-0-0-0-0-|0-0-0-0-0-0-0-0-0-0-|0-0-0-0-0-0-0-0-0-0-|0-0-0-0-0-0-0-0-0-0-|
Gb :----0-0-0-0-0-0-0-0-|0-0-0-0-0-0-0-0-0-0-|0-0-0-0-0-0-0-0-0-0-|0-0-0-0-0-0-0-0-0-0-|
D  :--0---0-0-0-0-0-0-0-|0-0-0-0-0-0-0-0-0-0-|0-0-0-0-0-0-0-0-0-0-|0-0-0-0-0-0-0-0-0-0-|
G  :0---------0-0-0-0-0-|4-4-4-4-4-2-2-2-2-2-|0-0-0-0-0-0-0-0-0-0-|4-4-4-4-4-2-2-2-2-2-|
D  :--------------------|--------------------|--------------------|--------------------|
...do you feel guilty?...
E  :0-0-0-0-0-0-0-0-0-0-|0-------0-------|0---------------|----------------|
A  :0-0-0-0-0-0-0-0-0-0-|0-------0-------|0---------------|----------------|
Gb :0-0-0-0-0-0-0-0-0-0-|0-------0-------|0---------------|----------------|
D  :0-0-0-0-0-0-0-0-0-0-|0-------0-------|0---------------|----------------|
G  :0-0-0-0-0-0-0-0-0-0-|4-------2-------|0---------------|----------------|
D  :--------------------|----------------|----------------|----------------|

E  :------------------|------------------|------------------|------------------|
A  :------------------|------------------|------------------|------------------|
Gb :3-p0-0----0---0---|3-p0-0----0---0---|3-p0-0----0---0---|3-p0-0----0---0---|
D  :0----2-p0-4---4---|0----2-p0-4---4---|0----2-p0-4---4---|0----2-p0-4---4---|
G  :0----0----0---0---|0----0----0---0---|0----0----0---0---|0----0----0---0---|
D  :------------------|------------------|------------------|------------------|
...and i don't wanna know, i don't wanna know...
E  :----------------|---------------------|----------------|----------------|
A  :----------------|---------------------|----------------|----------------|
Gb :--0-----0-----0-|----0---0-1h-0-------|--0-----0-----0-|----0-----------|
D  :----0-----0-----|0-----0-------0-2h-0-|----0-----0-----|0-----0-0---0---|
G  :0-----0-----0---|--0------------------|0-----0-----0---|--0-----7---7---|
D  :----------------|---------------------|----------------|--------0---0---|

E  :----------------|
A  :5---------------|
Gb :0---------------|
D  :0---------------|
G  :2---------------|
D  :0---------------|

b=bend
h=hammer on

            
            
Suggest correction
Creating personal tab
Creating personal tab
You can edit any tab online and save it as your Personal.

You can edit, replace or remove any tab part or add personal notes – all changes will be seen only by you.

Personal tabs can be accessed anytime from any device, even offline.
Learn more »
Give kudos to tab author, rate the tab!
1 2 3 4 5
comments
print report bad tab
guest
You may want to rate the tab now too:
select rating
Wanna post a correction for this tab? Suggest correction