Oops, an error
Loading. Please wait.

Bolero tab

113 views 1 this week
no commentswrite comment
1 2 3 4 5
3 more votes to show rating
add to favorites
×
Save as Personal and add changes to this tab that will be seen only by you. Learn more ›
×
You can save this tab as Personal to edit and correct it or add notes. All changes will be seen only by you. Learn more »
launch autoscroll
font size
0
reset
how to read this tab
guitar tuner
edit
Autoscroll
slow
fast
+/-
esc
set tempo
stop
Aqui les mando el INTRO i el SOLO de esta rolasa, es muy buena
i sencilla hechenle ganas i la sacan igualita =) Saludos i
k viva el Rock =)

INTRO:

e|-----2----2---------------------------
b|---1---1-1--1~--1-3s1-3s1-3s5-3-3s1-0-1

e|------------------------
b|-1-1s8^-8-6-6s5~----8---
g|------------------^7-7~~>>>(00:16)

Cada verso que te di...


>>Nada sucede por casualidad

E --0-----0-----
B ----1-----1---
G ------0-----0-
D --------------
A --------------
E --------------

Cada minuto sin ti
siento que vuelvo a empezar
la ternura no vendra
perdida en algun lugar

SOLO:(1:53)

b|----8-----------8-6-5---------------8-6s5---
g|--7^-7/7h5-7~--------5~----5---5~-7^-----5~-
d|------------------------7-7-7-7-------------

e|---8--8--8----------------------------------
b|--8^-8^-8^-8~-10^-10~--12^-12~--13^^-13~~--->>>(2:09)

Busco un recuerdo...


>>>envuelve tu sonrisa

E --0-----0-----0-----
B ----1-----1-----1---
G ------0-----0-----0-
D --------------------
A --------------------
E --------------------

Cada verso que te di...
       (Dar una sola rasgueada en toda esta estrofa)

>>>que se confunde en un Adios..

Un saludo a la Gente de Campo de Almas

            
            
Suggest correction
Creating personal tab
Creating personal tab
You can edit any tab online and save it as your Personal.

You can edit, replace or remove any tab part or add personal notes – all changes will be seen only by you.

Personal tabs can be accessed anytime from any device, even offline.
Learn more »
Give kudos to tab author, rate the tab!
1 2 3 4 5
comments
print report bad tab
guest
Wanna post a correction for this tab? Suggest correction