Oops, an error
Loading. Please wait.

Cuando Pienso Y Estoy Solo tab

39 views 1 this week
no commentswrite comment
1 2 3 4 5
3 more votes to show rating
add to favorites
×
Save as Personal and add changes to this tab that will be seen only by you. Learn more ›
×
You can save this tab as Personal to edit and correct it or add notes. All changes will be seen only by you. Learn more »
launch autoscroll
font size
0
reset
how to read this tab
guitar tuner
edit
Autoscroll
slow
fast
+/-
esc
set tempo
stop
SOLO UN ERROR.....
_______________________________________________________________________

Campo de Almas
Cuando pienso y estoy solo
Hecho por: JuanP.(Perú!)

Esta canción creo que está bien sacada... nadie puso el solo asi que
ahi les va! ^-^! Go Fronti 21! Disfrutenla!!
_______________________________________________________________________

Llévame lejos...guíame yo ire...
curame la angustia..tómame

     C5       G5
|------------------------|
|------------------------|
|--5-5-55----------------|
|--5-5-55--555555555-----|
|--3-3-33--555555555-----|
|----------333333333-----| x4


pon tu mano en mi rostro sostenla un poco no la dejes.

    F5        C5         G5        F5       G5
|----------------------------------------------------|
|----------------------------------------------------|
|-----------5555555----------------------------------|
|-3333333---5555555---5555555-----3333333/555555-----|
|-3333333---3333333---5555555-----3333333/555555-----|
|-1111111-------------3333333-----1111111/333333-----|
   pm...      pm...    pm...          pm....

toma mi miedo y devuelve una sonrisa

    C5       G5        F5        G5
|----------------------------------------|
|----------------------------------------|
|-555555---------------------------------|
|-555555---5555555---3333333---5555555---|
|-333333---5555555---3333333---5555555---|
|----------3333333---1111111---3333333---|
  pm...     pm...     pm...      pm...


yo no se porque lo digo...no lo sé....
quizás no debas entrar...en miii...

     C5       G5
|------------------------|
|------------------------|
|--5-5-55----------------|
|--5-5-55--555555555-----|
|--3-3-33--555555555-----|
|----------333333333-----| x4


solo quiero un abrazo en el adagio de mi alma

    F5        C5         G5        F5       G5
|----------------------------------------------------|
|----------------------------------------------------|
|-----------5555555----------------------------------|
|-3333333---5555555---5555555-----3333333/555555-----|
|-3333333---3333333---5555555-----3333333/555555-----|
|-1111111-------------3333333-----1111111/333333-----|
   pm...      pm...    pm...          pm....


saca mis penas y mi llanto que te aman

    C5       G5        F5        G5
|----------------------------------------|
|----------------------------------------|
|-555555---------------------------------|
|-555555---5555555---3333333---5555555---|
|-333333---5555555---3333333---5555555---|
|----------3333333---1111111---3333333---|
  pm...     pm...     pm...      pm...


Solo: [C5-G5]x4

|-----------------------------------------------------------|
|-----------13--------13------------------------------------|
|-0/(10)-12v--(10)-12v----12--10-8--5---3h5-5-5-5----5h8p5--|
|-------------------------------------------------5-5-------|
|-----------------------------------------------------------|
|-----------------------------------------------------------|

|----------------------------------------------------------------------|
|---------13---------13----------------------13--------13--------13...-|
|-/(10)12v--(10)--12v----12-10-8-5--/(10)-12v--(10)-12v--(10)-12v------|
|----------------------------------------------------------------------|
|----------------------------------------------------------------------|
|----------------------------------------------------------------------|


ahora nadie me ve asi...

     A5        G5
|----------------------|
|----------------------|
|----------------------|
|-7777777---55555555---|
|-7777777---55555555---|
|-5555555---33333333---|


y a ti te quiero dar...hasta el último rincón de mi vida...

      A5         D5        G5
|----------------------------------|
|----------------------------------|
|-------------77777777-------------|
|---77777777--77777777--55555555---|
|---77777777--55555555--55555555---|
|---55555555------------33333333---|


es estúpido... si lo sé...
ser asi... por eso hecha todo fuera de aquíííí..

     C5       G5
|------------------------|
|------------------------|
|--5-5-55----------------|
|--5-5-55--555555555-----|
|--3-3-33--555555555-----|
|----------333333333-----| x4


sólo guarda un minuto de este momento para tu vida...

    F5        C5         G5        F5       G5
|----------------------------------------------------|
|----------------------------------------------------|
|-----------5555555----------------------------------|
|-3333333---5555555---5555555-----3333333/555555-----|
|-3333333---3333333---5555555-----3333333/555555-----|
|-1111111-------------3333333-----1111111/333333-----|
   pm...      pm...    pm...          pm....


nos rozará el viento y sentirás que soy tu guía

    C5       G5        F5        G5
|----------------------------------------|
|----------------------------------------|
|-555555---------------------------------|
|-555555---5555555---3333333---5555555---|
|-333333---5555555---3333333---5555555---|
|----------3333333---1111111---3333333---|
  pm...     pm...     pm...      pm...


Abrázame... guíame... y cura mi dolor...

   F5        G5                    C5
|--------------------|     |---------------|
|--------------------|     |---------------|
|--------------------|     |----55555555---|
|-333333---5555555---|     |----55555555---|
|-333333---5555555---|     |----33333333---|
|-111111---3333333---|x3   |---------------|


Espera... protegeré... y velare tu amoooor....

   F5        G5                    C5
|--------------------|     |---------------|
|--------------------|     |---------------|
|--------------------|     |----55555555---|
|-333333---5555555---|     |----55555555---|
|-333333---5555555---|     |----33333333---|
|-111111---3333333---|x3   |---------------|

 B5 C5 B5 C5 ...  C5
|---------------------|
|---------------------|
|-4555455545555---5---|
|-4555455545555---5---|
|-2333233323333---3---|
|---------------------|

            
            
Suggest correction
Creating personal tab
Creating personal tab
You can edit any tab online and save it as your Personal.

You can edit, replace or remove any tab part or add personal notes – all changes will be seen only by you.

Personal tabs can be accessed anytime from any device, even offline.
Learn more »
Give kudos to tab author, rate the tab!
1 2 3 4 5
comments
print report bad tab
guest
Wanna post a correction for this tab? Suggest correction