Oops, an error
Loading. Please wait.

El Silencio tab

44 views 1 this week
no commentswrite comment
1 2 3 4 5
3 more votes to show rating
add to favorites
×
Save as Personal and add changes to this tab that will be seen only by you. Learn more ›
×
You can save this tab as Personal to edit and correct it or add notes. All changes will be seen only by you. Learn more »
launch autoscroll
font size
0
reset
how to read this tab
guitar tuner
edit
Autoscroll
slow
fast
+/-
esc
set tempo
stop
____________________________________________________________________

Campo de Almas
El silencio
Hecho por: JuanP.(Perú)
____________________________________________________________________

Intro:

  G5  B5  E5   C5      G5 B5  E5  A5      G5  B5  E5   C5   D5
|-------------------|-------------------|-------------------------|
|-------------------|-------------------|-------------------------|
|-----44------555---|-----44------------|-----44------555/77777---|
|--5--44--22--555---|--5--44--22--7-7---|--5--44--22--555/77777---|
|--5--22--22--333---|--5--22--22--7-7---|--5--22--22--333/55555---|
|--3------00--------|--3------00--5-5---|--3------00--------------|

Estrofa:

Duramente trató describir cuando el verano terminó
y la brisa se llevaba tu dulce sonrisa...
Caigo preso en desolación en un hoguera de estupor
pero mi vida me quemaría si tuviera tu sonrisa...

     G5      B5     C5       D5
|------------------------------------|
|------------------------------------|
|----------444444/555555--77777777---|
|--555555--444444/555555--77777777---|
|--555555--222222/333333--55555555---|
|--333333----------------------------|x2

Pre-Coro:

El silencio me dominó siempre estuve detrás de ti..(Uhhh..Uhhhh..Uhhh..)
amándote en silencio..

   C5      B5      A5       D5
|------------------------------------|
|------------------------------------|
|-55555--444444----------777777777---|
|-55555--444444--777777--777777777---|
|-33333--222222--777777--555555555---|
|----------------555555--------------|

Intro:

  G5  B5  E5  C5      G5  B5  E5  A5     D5
|-------------------|---------------------------|
|-------------------|---------------------------|
|-----44------555---|-----44-----------777777---|
|--5--44--22--555---|--5--44--22--7-7--777777---|
|--5--22--22--333---|--5--22--22--7-7--555555---|
|--3------00--------|--3------00--5-5-----------|

Estrofa:

Caminaba sobre las nubes una princesa complaciente
y yo siempre te pedia cerrando mis ojos...
Siempre cerca en la orilla era el perfume en tu mejilla
siempre solo dibujando besar tu sonrisa...

     G5      B5     C5       D5
|------------------------------------|
|------------------------------------|
|----------444444/555555--77777777---|
|--555555--444444/555555--77777777---|
|--555555--222222/333333--55555555---|
|--333333----------------------------|x2

Coro:

Si pudiera saber como vives en mí..(Uhhh..Uhhhh..Uhhh..)
quizá tu podrías venir...

   C5      B5      A5       D5
|------------------------------------|
|------------------------------------|
|-55555--444444----------777777777---|
|-55555--444444--777777--777777777---|
|-33333--222222--777777--555555555---|
|----------------555555--------------|

Coro:

Solo un tiempo más..déjame despertar
consejos que duermen en tí...
En mi encontrarás cuando sale el solo
un silencioso amor...

    G5     D5     E5    C5   B5    A5
|----------------------------------------|
|----------------------------------------|
|---------77777--99999/5555/44444--------|
|--55555--77777--99999/5555/44444-7777---|
|--55555--55555--77777/3333/22222-7777---|
|--33333--------------------------5555---|

Intro:

  G5  B5  E5   C5      G5 B5  E5  A5      G5  B5  E5   C5   D5
|-------------------|-------------------|-------------------------|
|-------------------|-------------------|-------------------------|
|-----44------555---|-----44------------|-----44------555/77777---|
|--5--44--22--555---|--5--44--22--7-7---|--5--44--22--555/77777---|
|--5--22--22--333---|--5--22--22--7-7---|--5--22--22--333/55555---|
|--3------00--------|--3------00--5-5---|--3------00--------------|


Interludio:

    G5        D5          E5         C5           G5        D5
|---------------------------------------------------------------------|
|---------------------------------------------------------------------|
|-----------77777777/--99999999/--555555555--------------7777777777---|
|-55555555/-77777777/--99999999/--555555555---555555555--7777777777---|
|-55555555/-55555555/--77777777/--333333333---555555555--5555555555---|
|-33333333------------------------------------333333333---------------|x2


Pre-Coro:

El silencio me dominó siempre estuve detrás de ti...(Uhhh..Uhhhh..Uhhh..)
amándote en silencio...
Si pudiera saber como vives en mí..(Uhhh..Uhhhh..Uhhh..)
quizá tu podrías venir...

   C5      B5      A5       D5
|------------------------------------|
|------------------------------------|
|-55555--444444----------777777777---|
|-55555--444444--777777--777777777---|
|-33333--222222--777777--555555555---|
|----------------555555--------------|x2

Coro:

Solo un tiempo más..déjame despertar
consejos que duermen en tí...
En mi encontrarás cuando sale el solo
un silencioso amor...

    G5     D5     E5    C5   B5    A5
|----------------------------------------|
|----------------------------------------|
|---------77777--99999/5555/44444--------|
|--55555--77777--99999/5555/44444-7777---|
|--55555--55555--77777/3333/22222-7777---|
|--33333--------------------------5555---|x2

Outro:

  G5  B5  E5   C5      G5 B5  E5  A5      G5  B5  E5   C5   D5       G5
|-------------------|-------------------|-------------------------|-------|
|-------------------|-------------------|-------------------------|-------|
|-----44------555---|-----44------------|-----44------555/77777---|-------|
|--5--44--22--555---|--5--44--22--7-7---|--5--44--22--555/77777---|---5---|
|--5--22--22--333---|--5--22--22--7-7---|--5--22--22--333/55555---|---5---|
|--3------00--------|--3------00--5-5---|--3------00--------------|---3---|


*****Las letras entán arriba de los acordes..no se confundan!******
   Cualquier cosa a mi mail washburn18@

            
            
Suggest correction
Creating personal tab
Creating personal tab
You can edit any tab online and save it as your Personal.

You can edit, replace or remove any tab part or add personal notes – all changes will be seen only by you.

Personal tabs can be accessed anytime from any device, even offline.
Learn more »
Give kudos to tab author, rate the tab!
1 2 3 4 5
comments
print report bad tab
guest
Wanna post a correction for this tab? Suggest correction