Oops, an error
Loading. Please wait.

Gris tab

46 views 1 this week
no commentswrite comment
1 2 3 4 5
3 more votes to show rating
add to favorites
×
Save as Personal and add changes to this tab that will be seen only by you. Learn more ›
×
You can save this tab as Personal to edit and correct it or add notes. All changes will be seen only by you. Learn more »
launch autoscroll
font size
0
reset
how to read this tab
guitar tuner
edit
Autoscroll
slow
fast
+/-
esc
set tempo
stop
INTRO

1|------------------------------------------------|
2|------------------------------------------------|
3|--7-7-7-7-7-7-7-7-------12-12-12-12-12-12-12-12-|
4|--7-7-7-7-7-7-7-7-------12-12-12-12-12-12-12-12-|
5|--5-5-5-5-5-5-5-5-------10-10-10-10-10-10-10-10-|
6|------------------------------------------------|  

1|------------------------------------------------|
2|------------------------------------------------|
3|--7-7-7-7-7-7-7-7-------12-12-12-12-12-12-12-12-|
4|--7-7-7-7-7-7-7-7-------12-12-12-12-12-12-12-12-|
5|--5-5-5-5-5-5-5-5-------10-10-10-10-10-10-10-10-|
6|------------------------------------------------|  

--------------------------------------------------------


1|--------------------------------------|
2|--------------------------------------|
3|-5-5-5-5-5-5-5-5---7-7-7-7-7-7-7-7----|
4|-5-5-5-5-5-5-5-5---7-7-7-7-7-7-7-7----|
5|-3-3-3-3-3-3-3-3---5-5-5-5-5-5-5-5----|
6|--------------------------------------|
   Tus amores,       tus temores y tu sed


1|--------------------------------------|
2|--------------------------------------|
3|-------------------5-5-5-5-5-5-5-5----|
4|-5-5-5-5-5-5-5-5---5-5-5-5-5-5-5-5----|
5|-5-3-3-3-3-3-3-3---3-3-3-3-3-3-3-3----|
6|-3-3-3-3-3-3-3-3----------------------|  
que me lleve en corto paso fantasmal.


1|--------------------------------------|
2|--------------------------------------|
3|-5-5-5-5-5-5-5-5---7-7-7-7-7-7-7-7----|
4|-5-5-5-5-5-5-5-5---7-7-7-7-7-7-7-7----|
5|-3-3-3-3-3-3-3-3---5-5-5-5-5-5-5-5----|
6|--------------------------------------|
Los momentos y rencores que dejé
        
                     
1|--------------------------------------|
2|--------------------------------------|
3|-------------------5-5-5-5-5-5-5-5----|
4|-5-5-5-5-5-5-5-5---5-5-5-5-5-5-5-5----|
5|-5-3-3-3-3-3-3-3---3-3-3-3-3-3-3-3----|
6|-3-3-3-3-3-3-3-3----------------------|
explicación, que, con sigilo callaré.


1|------------------------------------------------|
2|------------------------------------------------|
3|--7-7-7-7-7-7-7-7-------12-12-12-12-12-12-12-12-|
4|--7-7-7-7-7-7-7-7-------12-12-12-12-12-12-12-12-|
5|--5-5-5-5-5-5-5-5-------10-10-10-10-10-10-10-10-|
6|------------------------------------------------| 
      Así            voló
      
    
1|------------------------------------------------|
2|------------------------------------------------|
3|--7-7-7-7-7-7-7-7-------12-12-12-12-12-12-12-12-|
4|--7-7-7-7-7-7-7-7-------12-12-12-12-12-12-12-12-|
5|--5-5-5-5-5-5-5-5-------10-10-10-10-10-10-10-10-|
6|------------------------------------------------|  
Juegos de azar


1|--------------------------------------|
2|--------------------------------------|
3|-5-5-5-5-5-5-5-5---7-7-7-7-7-7-7-7----|
4|-5-5-5-5-5-5-5-5---7-7-7-7-7-7-7-7----|
5|-3-3-3-3-3-3-3-3---5-5-5-5-5-5-5-5----|
6|--------------------------------------| 
Una tarde, unas lágrimas de fé


1|--------------------------------------|
2|--------------------------------------|
3|-------------------5-5-5-5-5-5-5-5----|
4|-5-5-5-5-5-5-5-5---5-5-5-5-5-5-5-5----|
5|-5-3-3-3-3-3-3-3---3-3-3-3-3-3-3-3----|
6|-3-3-3-3-3-3-3-3----------------------|
una caricia prohibida en lo mortal.


1|--------------------------------------|
2|--------------------------------------|
3|-5-5-5-5-5-5-5-5---7-7-7-7-7-7-7-7----|
4|-5-5-5-5-5-5-5-5---7-7-7-7-7-7-7-7----|
5|-3-3-3-3-3-3-3-3---5-5-5-5-5-5-5-5----|
6|--------------------------------------| 
Mientras mas cerca sentías mi afección


1|--------------------------------------|
2|--------------------------------------|
3|-------------------5-5-5-5-5-5-5-5----|
4|-5-5-5-5-5-5-5-5---5-5-5-5-5-5-5-5----|
5|-5-3-3-3-3-3-3-3---3-3-3-3-3-3-3-3----|
6|-3-3-3-3-3-3-3-3----------------------|
te envenenaba con momentos de amor.


1|------------------------------------------------|
2|------------------------------------------------|
3|--7-7-7-7-7-7-7-7-------12-12-12-12-12-12-12-12-|
4|--7-7-7-7-7-7-7-7-------12-12-12-12-12-12-12-12-|
5|--5-5-5-5-5-5-5-5-------10-10-10-10-10-10-10-10-|
6|------------------------------------------------| 
Así                        partió
 

1|------------------------------------------------|
2|------------------------------------------------|
3|--7-7-7-7-7-7-7-7-------12-12-12-12-12-12-12-12-|
4|--7-7-7-7-7-7-7-7-------12-12-12-12-12-12-12-12-|
5|--5-5-5-5-5-5-5-5-------10-10-10-10-10-10-10-10-|
6|------------------------------------------------|  
Juegos de azar


1|----------------------------------------------|
2|----------------------------------------------|
3|-5-5-5-5-5-5-5-5---10-10-10-10-10-10-10-10----|
4|-5-5-5-5-5-5-5-5---10-10-10-10-10-10-10-10----|
5|-3-3-3-3-3-3-3-3----8--8--8--8--8--8--8--8----|
6|----------------------------------------------| 
No necesito,           verte llorar 
                         

1|------------------------------------|
2|------------------------------------|
3|--7-7-7-7-7-7-7-7-----10-9-9-7-9----|
4|--7-7-7-7-7-7-7-7-----10-9-9-7-9----|
5|--5-5-5-5-5-5-5-5------8-7-7-5-7----|
6|------------------------------------|
para saber que          nunca te iba a amar
  

1|--------------------------------------|
2|--------------------------------------|
3|--9-9-9-9-9-9-9-9-----12-10-/9-7-9-10-|
4|--9-9-9-9-9-9-9-9-----12-10-/9-7-9-10-|
5|--7-7-7-7-7-7-7-7-----10-8--/7-5-7--8-|
6|--------------------------------------|
Yo me quedo en           silencio, por favor 


1|----------------------------------------------|
2|----------------------------------------------|
3|---10-10-10-10-10-10-10-10-/9-9-7-9-----------|
4|---10-10-10-10-10-10-10-10-/9-9-7-9-----------|
5|----8--8--8--8--8--8--8--8-/7-7-5-7-----------|
6|----------------------------------------------|             
tu sufrimiento clava las esquirlas del dolor.


1|----------------------------------|
2|----------------------------------|
3|---10-10-10-10--7-7-7-7-10-9-7-5--|
4|---10-10-10-10--7-7-7-7-10-9-7-5--|
5|----8--8--8--8--5-5-5-5-8--7-5-3--|
6|----------------------------------|      
        Tu       volverás. Al volver a verme,
 

1|---------------------------------|
2|---------------------------------|
3|---10-10-10-10--7-7-7-7-5-5-5-5--|
4|---10-10-10-10--7-7-7-7-5-5-5-5--|
5|----8--8--8--8--5-5-5-5-3-3-3-3--|
6|---------------------------------| 
     tu volverás.
     

1|----------------------------------|
2|----------------------------------|
3|---10-10-10-10--7-7-7-7-10-9-7-5--|
4|---10-10-10-10--7-7-7-7-10-9-7-5--|
5|----8--8--8--8--5-5-5-5-8--7-5-3--|
6|----------------------------------|
Tu volverás. Al volver a verme,


1|---------------------------------|
2|---------------------------------|
3|---10-10-10-10--7-7-7-7-5-5-5-5--|
4|---10-10-10-10--7-7-7-7-5-5-5-5--|
5|----8--8--8--8--5-5-5-5-3-3-3-3--|
6|---------------------------------|   
Siempre sin pensar.


SOLO RITMICO::::::---->>>>
1|--------------------|
2|--------------------|
3|---10-10-9-9--7-7-7-|
4|---10-10-9-9--7-7-7-|
5|----8--8-7-7--5-5-5-|
6|--------------------|   

1|--------------------|
2|--------------------|
3|---10-10-9-9--5-5-5-|
4|---10-10-9-9--5-5-5-|
5|----8--8-7-7--3-3-3-|
6|--------------------|  

1|---------------------------------------|
2|---------------------------------------|
3|---10-10-10---12-12-12-12-12-12-12-12--|
4|---10-10-10---12-12-12-12-12-12-12-12--|
5|----8--8--8---10-10-10-10-10-10-10-10--|
6|---------------------------------------|  


1|-----------------|
2|-----------------|
3|----10-----------|
4|-10r---12h10-----|
5|-----------------|
6|-----------------| 

1|------------------------------------------------|
2|------------------------------------------------|
3|--7-7-7-7-7-7-7-7-------12-12-12-12-12-12-12-12-|
4|--7-7-7-7-7-7-7-7-------12-12-12-12-12-12-12-12-|
5|--5-5-5-5-5-5-5-5-------10-10-10-10-10-10-10-10-|
6|------------------------------------------------|  
Así partió
 

1|------------------------------------------------|
2|------------------------------------------------|
3|--7-7-7-7-7-7-7-7-------12-12-12-12-12-12-12-12-|
4|--7-7-7-7-7-7-7-7-------12-12-12-12-12-12-12-12-|
5|--5-5-5-5-5-5-5-5-------10-10-10-10-10-10-10-10-|
6|------------------------------------------------|  
Juegos de azar


1|-------------------------------------------------|
2|-------------------------------------------------|
3|--9-9-9-9-9-9-9-9---10-/7-7-7-7-7--10-/7-7-7-7-7-|
4|--9-9-9-9-9-9-9-9---10-/7-7-7-7-7--10-/7-7-7-7-7-|
5|--7-7-7-7-7-7-7-7---8--/5-5-5-5-5--8--/5-5-5-5-5-|
6|---------------------------| 
Lloran, grises,


1|-------------------------------------------------|
2|-------------------------------------------------|
3|--7-7-7-7-7-7-7-7---10-10-10-10-10-10-10-10-7-5--|
4|--7-7-7-7-7-7-7-7---10-10-10-10-10-10-10-10-7-5--|
5|--5-5-5-5-5-5-5-5----8--8--8--8--8--8--8--8-5-3--|
6|-------------------------------------------------| 
tardes frías de verano.


1|----------------------------------------------|
2|----------------------------------------------|
3|-5-5-5-5-5-5-5-5---10-10-10-10-10-10-10-10----|
4|-5-5-5-5-5-5-5-5---10-10-10-10-10-10-10-10----|
5|-3-3-3-3-3-3-3-3----8--8--8--8--8--8--8--8----|
6|----------------------------------------------|                          
No necesito,           verte llorar 


1|------------------------------------|
2|------------------------------------|
3|--7-7-7-7-7-7-7-7-----10-9-9-7-9----|
4|--7-7-7-7-7-7-7-7-----10-9-9-7-9----|
5|--5-5-5-5-5-5-5-5------8-7-7-5-7----|
6|------------------------------------| 
para saber que          nunca te iba a amar
 

1|--------------------------------------|
2|--------------------------------------|
3|--9-9-9-9-9-9-9-9-----12-10-/9-7-9-10-|
4|--9-9-9-9-9-9-9-9-----12-10-/9-7-9-10-|
5|--7-7-7-7-7-7-7-7-----10-8--/7-5-7--8-|
6|--------------------------------------|
Yo me quedo en           silencio, por favor 


1|----------------------------------------------|
2|----------------------------------------------|
3|---10-10-10-10-10-10-10-10-/9-9-7-9-----------|
4|---10-10-10-10-10-10-10-10-/9-9-7-9-----------|
5|----8--8--8--8--8--8--8--8-/7-7-5-7-----------|
6|----------------------------------------------|               
tu sufrimiento clava las esquirlas del dolor.


1|----------------------------------|
2|----------------------------------|
3|---10-10-10-10--7-7-7-7-----------|
4|---10-10-10-10--7-7-7-7-10-9-7-5--|
5|----8--8--8--8--5-5-5-5-8--7-5-3--|
6|----------------------------------|      
        Tu       volverás. Al volver a verme,
 

1|---------------------------------|
2|---------------------------------|
3|---10-10-10-10--7-7-7-7-5-5-5-5--|
4|---10-10-10-10--7-7-7-7-5-5-5-5--|
5|----8--8--8--8--5-5-5-5-3-3-3-3--|
6|---------------------------------|
     tu volverás.
      

1|----------------------------------|
2|----------------------------------|
3|---10-10-10-10--7-7-7-7-----------|
4|---10-10-10-10--7-7-7-7-10-9-7-5--|
5|----8--8--8--8--5-5-5-5-8--7-5-3--|
6|----------------------------------| 
Tu volverás. Al volver a verme,
 

1|---------------------------------|
2|---------------------------------|
3|---10-10-10-10--7-7-7-7-5-5-5-5--|
4|---10-10-10-10--7-7-7-7-5-5-5-5--|
5|----8--8--8--8--5-5-5-5-3-3-3-3--|
6|---------------------------------|  
Siempre sin pensar.
 

SOLO RITMICO::::::---->>>>
1|--------------------|
2|--------------------|
3|---10-10-9-9--7-7-7-|
4|---10-10-9-9--7-7-7-|
5|----8--8-7-7--5-5-5-|
6|--------------------|   

1|---------------------|
2|---------------------|
3|---10-10-10-10-10-10-|
4|---10-10-10-10-10-10-|
5|----8--8--8--8--8--8-|
6|---------------------|  

1|----------------------------------------|
2|----------------------------------------|
3|---10-10-10---12-12-12-12-12-12-12-12-5-|
4|---10-10-10---12-12-12-12-12-12-12-12-5-|
5|----8--8--8---10-10-10-10-10-10-10-10-3-|
6|----------------------------------------|  

Saludos desde ECUADOR !!!!!!!!!!

Estos riffs están más q detallados y me he tomado la molestia de 
poner no el equivalente armónico de las cuerdas sino su número, 
para que no se pierdan, pues nunca falta el desgraciado que pone 
3 lineas con sus letras y aquellos que recién incursionan en esto 
se quedan estrellados.

Además no he añadido ningún efecto a estos riffs, pues cada quien 
lo interpreta como quiere, les recomiento un palm muted, y un vibrato 
en algunas estrofas, así se escuchará mejor que el original.

Dudas, comentarios y sugerencias, por favor escriban :::>> sirdrake007@

            
            
Suggest correction
Creating personal tab
Creating personal tab
You can edit any tab online and save it as your Personal.

You can edit, replace or remove any tab part or add personal notes – all changes will be seen only by you.

Personal tabs can be accessed anytime from any device, even offline.
Learn more »
Give kudos to tab author, rate the tab!
1 2 3 4 5
comments
print report bad tab
guest
Wanna post a correction for this tab? Suggest correction