Oops, an error
Loading. Please wait.

Ya No Es Igual tab

23 views 1 this week
no commentswrite comment
1 2 3 4 5
3 more votes to show rating
add to favorites
×
Save as Personal and add changes to this tab that will be seen only by you. Learn more ›
×
You can save this tab as Personal to edit and correct it or add notes. All changes will be seen only by you. Learn more »
launch autoscroll
font size
0
reset
how to read this tab
guitar tuner
edit
Autoscroll
slow
fast
+/-
esc
set tempo
stop
Estos son los acordes utilizados n la canción

1)  G   C   D    Em  Am  Dm  2)C   G*  Am  Dm  G  3) Em  F
e --3---8---10---7---5---5--|--0---3---0---1---3--|--0---1------------|
b --3---8---10---8---5---6--|--1---1---1---3---3--|--0---1--las demas-|
g --4---9---11---9---5---7--|--0---0---2---2---0--|--0---2---son las--|
D --5---10--12---9---7---7--|--2---0---2---0---0--|--2---3----mismas--|
A --5---10--12---7---7---5--|--3---2---0---0---2--|--2---3------------|
E --3---8---10---7---5---5--|--0---0---0---0---3--|--0---1------------|

   C   Em  C   Em
e -x---7~--x---7~-|
b -8~--8~--8~--8~-|
g -9~--9~--9~--9~-|
D -10~-x---10~-x--|
A -x---x---x---x--|
E -x---x---x---x--|

A ----------------3--3-2--2-0---------------3--3-2--2-0--0-5-|
E --3-3-3-5-3-2-0-------------3-3-3-5-3-2-0------------------|

1)G                        C
  Por mas que quieras ocultar la soledad
  D                        G
  por mas que sientas que puedes escapar
  Em                  Am
  vivir aun de los recuerdos
       C               D
  cambiando el final a tu voluntad

1)G                   C
  En mi historia se siente la nostalgia
  D                G
  pedir perdón no cura el dolor
  Em           Am
  de no saber nada de tu partida
  C                 D
  no saber nada de ti

1)C             G                      Am
  Un minuto de mas un momento para hablar
                      G
  escuchar porque te vas de mi
  C                 G                        Am
  Es mejor decir adiós que la historia terminó
          Dm              G
  a no saber porque no estás

2)            C           G*          Am
  Porque las noches no aclaran mi pesar
               Dm                      G
  ahora el invierno se ha vuelto mi verdad
               C         G*       Am
  Porque el silencio castiga tu voz
              Dm                G     |
  ahora la historia no tiene color.....Ya no es igual

   C   Em  C   Em
e -x---7~--x---7~-|
b -8~--8~--8~--8~-|
g -9~--9~--9~--9~-|
D -10~-x---10~-x--|
A -x---x---x---x--|
E -x---x---x---x--|

A ----------------3--3-2--2-0---------------3--3-2--2-0--0-5-|
E --3-3-3-5-3-2-0-------------3-3-3-5-3-2-0------------------|

3)Em           F
  Enrumbaré en otra dirección
  G               C
  empezaré desde cero
  Em             F
  me libraré de tanto y tanto amor
  G                    C
  que se convierte en dolor...
Em                 Am
  En dolor...En dolor
           Dm              G
  al no saber porque no estás

En la estrofa anterior c toca esto o los acordes
b --15-15-13-12...13-12---------15-15-13-12...__las veces q sea necesario
g ----------------------14-12...-----------...///  /

....luego cambia esto:

e -10-10-8-7...8-7---------10-10-8-7...
b ----------------10-8...-----------...

1)C             G                      Am
  Un minuto de mas un momento para hablar
                      G
  escuchar porque te vas de mi
  C                 G                        Am
  Es mejor decir adiós que la historia terminó
          Dm              G
  a no saber porque no estás

2)            C           G*          Am
  Porque las noches no aclaran mi pesar
               Dm                      G
  ahora el invierno se ha vuelto mi verdad
               C         G*       Am
  Porque el silencio castiga tu voz
              Dm                G     |
  ahora la historia no tiene color.....Ya no es igual

   C   Em  C   Em
e -x---7~--x---7~-|--------------------------------------------------|
b -8~--8~--8~--8~-|--------------------------------------------------|
g -9~--9~--9~--9~-|--------------------------------------------------|
D -10~-x---10~-x--|--------------------------------------------------|
A -x---x---x---x--|---------------3--3-2--2-0---------------3--2--0--|
E -x---x---x---x--|-3-3-3-5-3-2-0-------------3-3-3-5-3-2-0----------|

Ahi sta toda la cancion la intro tiene un sonido raro pero s cuestion de
escucharla bien antes d sacarla....cualquier correccion m la mandan a mi
correo ps

            
            
Suggest correction
Creating personal tab
Creating personal tab
You can edit any tab online and save it as your Personal.

You can edit, replace or remove any tab part or add personal notes – all changes will be seen only by you.

Personal tabs can be accessed anytime from any device, even offline.
Learn more »
Give kudos to tab author, rate the tab!
1 2 3 4 5
comments
print report bad tab
guest
Wanna post a correction for this tab? Suggest correction