Oops, an error
Loading. Please wait.

Alma Llanera tab

107 views 1 this week
no commentswrite comment
1 2 3 4 5
3 more votes to show rating
add to favorites
×
Save as Personal and add changes to this tab that will be seen only by you. Learn more ›
×
You can save this tab as Personal to edit and correct it or add notes. All changes will be seen only by you. Learn more »
launch autoscroll
font size
0
reset
how to read this tab
guitar tuner
edit
Autoscroll
slow
fast
+/-
esc
set tempo
stop
Hola¡¡ A todos, me llamo Victor, tengo 16 años, y vivo en la
Ciudad de México,me encanta la música, y ahora quiero compartirles
mi primer trascripción, como apenas voy empezando en esto, me gustaría que
si tiene errores me lo hagan saber,para poder mejorarlo.
Espero que les sirva.

                             ALMA LLANERA

  Yo nací en una ribera.....
e-------------0--------------------------
B-----1-0-3-1---3-1-0-3-1-0---0----------
G-0-0-----------------------3---0--------
D----------------------------------------
A----------------------------------------

  soy hermano de la espuma....
e----------------------------------------
B-----1-1-1-1-0---------1-1-1-1-0--------
G-2-2-----------0---22------------0------
D----------------------------------------
A----------------------------------------

  soy hermano de la espuma....
e----------------------------------------
B-----1-1-1-1-0--------------------------
G-2-2-----------0---0-0-2-------0--------
D-------------------------3-3-3---2------
A----------------------------------------

  Y del sol.....
e----------------------------------------
B----------------------------------------
G------0----2-0--------------------------
D--3-0----------3-0----------------------
A-------------------3--------------------

Para la segunda estrofa es exactamente igual

Me arrulló la viva diana de la brisa en el palmar.....

  Amo, lloro, canto, sueño....
e-------------------0-------------------------------
B---------0-0-1-1-----1-3-0-1-------3-0-1---0-------
G-0-0-2-2---------------------2-----------2---0-----
D-------------------------------3---------------2---
A---------------------------------------------------

  Amo, lloro, canto, sueño....
e-------------------0-------------------------------
B---------0-0-1-1-----1-3-0-1-------3-0-1---0-------
G-0-0-2-2---------------------2-----------2---0-----
D-------------------------------3---------------2---
A---------------------------------------------------

  Yo nací en una ribera.....
e-------------------------------------------------------
B-------------------------------------------------------
G-0-0-0-0-0-----0---------------------0-0-0-0-----0-----
D-----------3-2---0---3-3-3-3-2-0-------------3-2---0---
A---------------------------------3---------------------

                                                                      FIN
e-------------------------------------------------------------------0----
B---------------------------------------------------------------0-1---3-1
G-0-0-0-0-0-----0-------------------0-0-0-0-----0-----------0-2--------0-
D-----------3-2---0--3-3-3-3-2-0------------3-2---0---0-2-3--------------
A--------------------------------3---------------------------------------

Por ultimo quiero enviar un saludo muy especial a todos los TUNOS, o
integrantes de alguna estudiantina o tuna, que están viendo esta canción!!

                              ¡¡AUPA TUNA!!

            
            
Suggest correction
Creating personal tab
Creating personal tab
You can edit any tab online and save it as your Personal.

You can edit, replace or remove any tab part or add personal notes – all changes will be seen only by you.

Personal tabs can be accessed anytime from any device, even offline.
Learn more »
Give kudos to tab author, rate the tab!
1 2 3 4 5
comments
print report bad tab
guest
Wanna post a correction for this tab? Suggest correction