Oops, an error
Loading. Please wait.

Ingrato Amor chords

54 views 1 this week
no commentswrite comment
1 2 3 4 5
3 more votes to show rating
add to favorites
×
Save as Personal and add changes to this tab that will be seen only by you. Learn more ›
×
You can save this tab as Personal to edit and correct it or add notes. All changes will be seen only by you. Learn more »
launch autoscroll
font size
0
reset
transpose
0
reset
simplify chords
display chords
guitar tuner
edit
Autoscroll
slow
fast
+/-
esc
set tempo
stop
Strumming
There is no strumming pattern for this song yet. and get +5 IQ
Nota: El requinto y los arpegios los hace una guitarra que no tenga capo
      Los rasgueos son con un capotrasto en el traste 2
Intro:
     D             A    G         Bm             A
e-2---3^0-----0-|-5-5-|-3-|--2----------------|--------------
B---------3-----|-----|---|------3--------3---|-----2--------
G---2-------2---|-6-6-|-4-|----4---4----4---4-|---2---2------
D-0-------------|-----|---|--4----------------|--------------
A---------------|-----|---|-----------2-------|-0------------
E---------------|-----|---|-------------------|--------------

      G               D      A            A  Bm  C#m  D
e---------3-2-0---|-2------|-0-|--------|---|---|---|-2-------
B-----3---------2-|---3---3|---|-3-2-3--|-2-|-3-|-5-|---------
G---4---4---------|-----2--|---|--------|---|---|---|---------
D-----------------|-0------|---|------0-|---|---|---|-0-------
A-----------------|--------|-0-|-0-0----|-0-|-2-|-4-|---------
E-3---------------|--------|---|--------|---|---|---|---------

Verso 1:
    D               A            Bm                    A
e---2^0-----|--------0------|---------2-------------|---------
B-------3---|-----2-----2---|-----3------3------3---|-----2---
G-2-------2-|---2---2-----2-|---4---4------4--4---4-|---2---2-
D-----------|---------------|-----------------------|---------
A-----------|-0-------------|-2--------------2------|-0-------
E-----------|---------------|-----------------------|---------

     G             A           F#m           Bm        A
e----------|---------0-----|------------0-|--------|----------
B-----3----|-----2-----2---|----2---2-2---|-3---3--|----2-----
G---4---4--|---2---2-----2-|--2---2-------|---4----|--2---2---
D----------|---------------|--------------|--------|----------
A----------|-0-------------|--------------|-2------|-0--------
E-3--------|---------------|-2------------|--------|----------

     G             A            F#m           Bm       A
e-------3--|---------0-----|------------0-|--------|----------
B-----3----|-----2-----2---|----2---2-2---|-3---3--|----2-----
G---4------|---2---2-----2-|--2---2-------|---4----|--2---2---
D----------|---------------|--------------|--------|----------
A----------|-0-------------|--------------|-2------|-0--------
E-3--------|---------------|-2------------|--------|----------

       E7              A       Bm  C#m  D         
e---------0------|-------0----|---|---|-2-
B-----0-------0--|-----2----2-|-3-|-5-|---
G---1---1---1---1|---2--------|---|---|---
D----------------|------------|---|---|-0-
A----------------|-0--------0-|-2-|-4-|---
E-0--------------|------------|---|---|---


Solo:

e-2-0-2-0---2-3/5-5-3-2--2-2-2-2-0-------------0------------
B---------2------------------------3-2-2h3-3-3---2-0--------
G-----------------------------------------------------2-2/4-
D-----------------------------------------------------------
A-----------------------------------------------------------
E-----------------------------------------------------------

  A  Bm  C#m  D
e---|---|---|-------2-
B-2-|-3-|-2-|-----3---
G---|---|---|---2-----
D---|---|---|-0-------
A-0-|-2-|-4-|---------
E---|---|---|---------
Ending:
       D          A  Bm  C#m  D
e-2---2-------0-|---|---|---|-------2-
B-------3---3---|-2-|-3-|-2-|-----3---
G---2-----2-----|---|---|---|---2-----
D-0-------------|---|---|---|-0-------
A---------------|-0-|-2-|-4-|---------
E---------------|---|---|---|---------

Verso 1:
Que me obliga a quererte   vida mía
Que me hace sufrir si no me miras, dime que
Cuando sé que te miro me quieres nada
Cuando sé que mis ojos se te olvidan


Verso 2:
C                   G   Am          G F    
Quien te lleva tan lejos de mi vida
                G            Em          Am 
Quien me tiene llorando en agonía, dime quien
F                 G         Em  Am     
Como puedes pedirme que te olvide
D7                      G               E
Cuando hay tanto de ti que no se olvida


Coro:
        Am             Am7
Ingrato amor, mal corazón
          D7                 G
Fuiste quien, quien me enamoró
                       E
Ingrato amor mal corazón
                         Am 
Y fuiste tú quien me dejó

          Am7            D7
Ingrato amor que puedo hacer
                        G
Que puedo hacer para vivir
                       E
Ingrato amor no puedo mas
                  Am
Te tengo que olvidar

         F G       Em
Ven olvido, dame alivio
          Am
no puedo mas
        F    G           C
Ven olvido alivia mi dolor

Solo: C, G, Am, Em, F, G

Verso 3:
C                    G   Am          G F    
Quien te puso tan dentro de mi vida
                 G            Em         Am
Quien ató tu sonrisa al alma mía, dime quien
F                 G         Em  Am    
Cuando sé que de mí no quieres nada
D7                      G               E
Cuando sé que mis ojos se te olvidan

Coro:
        Am             Am7
Ingrato amor, mal corazón
          D7                 G
Fuiste quien, quien me enamoró
                       E
Ingrato amor mal corazón
                         Am 
Y fuiste tú quien me dejó

          Am7            D7
Ingrato amor que puedo hacer
                        G
Que puedo hacer para vivir
                       E
Ingrato amor no puedo mas
                  Am
Te tengo que olvidar

         F G       Em
Ven olvido, dame alivio
          Am
no puedo mas
        F    G           C E
Ven olvido alivia mi dolor

        Am             Am7
Ingrato amor, mal corazón
          D7                 G
Fuiste quien, quien me enamoró
                       E
Ingrato amor mal corazón
                         Am 
Y fuiste tú quien me dejó

          Am7            D7
Ingrato amor que puedo hacer
                        G
Que puedo hacer para vivir
                       E
Ingrato amor no puedo mas
                  Am
Te tengo que olvidar

         F G       Em
Ven olvido, dame alivio
          Am
no puedo mas
        F    G           
Ven olvido alivia mi dolor

            
            
Suggest correction
Creating personal tab
Creating personal tab
You can edit any tab online and save it as your Personal.

You can edit, replace or remove any tab part or add personal notes – all changes will be seen only by you.

Personal tabs can be accessed anytime from any device, even offline.
Learn more »
Give kudos to tab author, rate the tab!
1 2 3 4 5
comments
print report bad tab
guest
Wanna post a correction for this tab? Suggest correction