Oops, an error
Loading. Please wait.

Pajaro Campana tab

version 2
version 2

Whole song

1,106 views 9 this week
no commentswrite comment
1 2 3 4 5
3 more votes to show rating
add to favorites
×
Save as Personal and add changes to this tab that will be seen only by you. Learn more ›
×
You can save this tab as Personal to edit and correct it or add notes. All changes will be seen only by you. Learn more »
launch autoscroll
font size
0
reset
how to read this tab
guitar tuner
edit
Autoscroll
slow
fast
+/-
esc
set tempo
stop
hola amigos aca les traigo otra hermosa cancion
popular: pajaro campana.. esta version esta tocada en Re7 y Sol
espero q les guste y no se olviden de calificar la cancion.
es a dos guitarras. pero se puede tocar con una.

(2 guitarra)
pueden empesar marcando los acordes, de esta manera.
|------2---2---2---|-----3--3----|------2---2---2---|
|-------1---1---1--|------3--3---|-------1---1---1--|
|--------2---2-----|-------0--0--|--------2---2-----|
|---0--------------|--0----------|---0--------------|
|--0---------------|-2-----------|--0---------------|
|-0----------------|3------------|-0----------------|
   RE7               SOL            RE7
|--------3-|
|-------3--|
|------0---|
|-----0----|
|----2-----|
|---3------|
   SOL

(1 guitarra)
esto es una introduccion lenta.
|-7--7--7--8--7-5-3-3-2|2-2-2-3-2--------|
|-8--8--8-10--8-7-5-5-3|3-3-3-5-3-5-3-3-0|
|----------------------|----------5-4-4-0|
|----------------------|-----------------|
|----------------------|-----------------|
|----------------------|-----------------|

|-7--7--7--8--7--5-|8-8-7-7-5-5-3-3-0|
|-8--8--8-10--8--7-|9-9-7-7-5-5-4-4-0|
|------------------|-----------------|
|------------------|-----------------|
|------------------|-----------------|
|------------------|-----------------|

|-7--7--7--8--7-5-3-3-2|7-7--8--8-7-10-12-10|
|-8--8--8-10--8-7-5-5-3|8-8-10-10-8-12-13-12|
|----------------------|--------------------|
|----------------------|--------------------|
|----------------------|--------------------|
|----------------------|--------------------|

|-7--7--7--8--7-5|10-10-8-8-7-7-5-5-3/
|-8--8--8-10--8-7|-------------------
|----------------|11-11-9-9-7-7-5-5-4
|----------------|-------------------
|----------------|-------------------
|----------------|-------------------

estribillo:
|/10--10--10--10--10--10--10--|
|-----------------------------|...sigue con el
|---11--11--12--12--11--11--12|estribillo, cda ves
|-----------------------------|mas rapido,
|-----------------------------|
|-----------------------------|

el estribillo puede variar con esto..

e|----10----10-----10-----10...
b|--10----10-----12-----12--...
g|11----11-----12-----12----...

|10-10-8-8-7-7-5-5-3-3|
|10-10-8-8-7-7-5-5-3-3|
|11-11-9-9-7-7-5-5-4-4|
|---------------------|
|---------------------|
|---------------------|

empiesa la estrofa.. en un ritmo casi todo
de Semicorchea..(1/4)

|7-7-7-7-8-7-5-------------------------
|-------------8-8-7--7-7-7-7-8-7-5-----
|---------------------------------7-7-4
|--------------------------------------
|--------------------------------------
|--------------------------------------

|7-7-7-7-8-7-5----------------------------
|-------------8-7-7-5-5-------------------
|----------------------7-7-5-5-5/4-5-4-3-4
|-----------------------------------------
|-----------------------------------------
|-----------------------------------------

|7-7-7-7-8-7-5-----7-7-7-7-8-7-8-10-10/12-10
|-------------8-8-7-------------------------
|-------------------------------------------
|-------------------------------------------
|-------------------------------------------
|-------------------------------------------

|7-7-7-8-7------10-8-7-------------------|
|---------10-8-7------10-8-7-------------|
|---------------------------9-7-6--------|
|---------------------------------9-7-6--|
|--------------------------------------9-|
|----------------------------------------|

|----------7-9-10-10-|
|----7-9-10----------| se toca un poco
|7-9--------------11-| del estribillo
|--------------------| y sigue con esto:
|--------------------| (mientras la 2º
|--------------------| guitarra sigue rasguando)

|7-9-10-7-9-10-------------7-9-10------7-9-10------
|-------------7-9-10-7-9-10------7-9-10------7-9-10
|--------------------------------------------------
|--------------------------------------------------

|------------------------------------------7-9-10-
|-----------7-9-10------------------7-9-10--------
|6-7-9-6-7-9------6-7-9-------6-7-9---------------
|-----------------------7-9-10--------------------

|10-10-8-8-7-7-5-5-3|
|-------------------|
|10-10-9-9-7-7-5-5-3|... se toca de nuevo la introduccion
|-------------------|    pero esta vez un poco mas rapida
|-------------------|
|-------------------|

luego se toca nueva mente el estribillo, pero se juega
un poco mas.. se puede tocar mas rapido, con el vaso,
subir hasta el traste 19 o 20, tocar en la boca..
en fin eso lo eligen ustedes, no se los puedo escribir
+
luego del 3º estribillo.. se toca esto..q es el final..

|-------------------------------------------|
|----------------------8-7-5----------------|
|-----------5-4----4-7------7-7-5-5-4-4-----|
|5-4----4-7-----7-5--------------------7-7-5|
|---7-5-------------------------------------|
|-------------------------------------------|
(esto se puede tocar 2 o 3 veces.. mas lento
o mas rapido..)

LA SEGUNDA GUITARRA RASGUEA TODA LA CANCION, Re7 Y Sol.
CON RITMO DE POLCA O POLKA:
| V  ^  V  X  ^  V
| V  ^  V  X  ^  V
| V  ^  V  X  ^  V
| V  ^     X  ^  V
| V  ^     X  ^  V
| V  ^     X  ^  V
  A. P  P  M  P  P

A= abanicar los dedos,sepàrarlos( no tocar con toda la mano junta
  sino tocar como un repique.. menique,anular,medio,indice...)
P= pulgar
M= mano

BUENO ESPERO QUE LES HAYA GUSTADO, MI MAIL:
MAROTE_93CJ@ PARA CORRECCIONES.
NO SE OLVIDEN DE CALIFICAR LA CANCION POR FAVOR,
SI NO MI ESFUERZO NO TIENE SENTIDO.
ESPERO QUE LES GUSTE.
PARA ENTENDER MAS LA CANCION ESCUCHEN:
PAJARO CAMPANA - POR Las Cuerdas Breñenses.

            
            
Suggest correction
Creating personal tab
Creating personal tab
You can edit any tab online and save it as your Personal.

You can edit, replace or remove any tab part or add personal notes – all changes will be seen only by you.

Personal tabs can be accessed anytime from any device, even offline.
Learn more »
Give kudos to tab author, rate the tab!
1 2 3 4 5
comments
print report bad tab
guest
Wanna post a correction for this tab? Suggest correction