Oops, an error
Loading. Please wait.

Cabeza tab

32 views 1 this week
no commentswrite comment
1 2 3 4 5
3 more votes to show rating
add to favorites
×
Save as Personal and add changes to this tab that will be seen only by you. Learn more ›
×
You can save this tab as Personal to edit and correct it or add notes. All changes will be seen only by you. Learn more »
launch autoscroll
font size
0
reset
how to read this tab
guitar tuner
edit
Autoscroll
slow
fast
+/-
esc
set tempo
stop
Intro:
distorsión y despues hay un feed back
e|-------------------------------------------
B|-------------------------------------------
G|------------------------------------------- 
D|-1\12--------------------------------------
A|-1\12--------------------------------------
D|-1\12--------------------------------------

Guitarra 1:
e|-------------------------------------------
B|-------------------------------------------
G|------4-4-----------------4-4-------------- 
D|-6-6--4-4--4-4--2-2--4-4--4-4--------------
A|-6-6--2-2--4-4--2-2--4-4--2-2--------------
D|-6-6-------4-4--2-2--4-4-------------------

Guitarra 2: este es el riff y se repite
varias veces
e|-------------------------------------------
B|-----9------7------------------------------
G|---8---8----------------------------------- 
D|-7-------7---------------------------------
A|-------------------------------------------
D|-------------------------------------------

verso: Clean asi es quiza alla por hay unos bajos
que faltan pero asi suena bien
e|--------------2----------------------------
B|------9-----2---2-------7---------5--------
G|----8----4------------6---------4---4------ 
D|-6-------4---------4--------2--------------
A|-6-------2---------4--------2--------------
D|-6-----------------4--------2--------------

No he comido nada........
e|-------------------------------------------
B|------------------------------------------- .Dejar sonar
G|-4.--2.--------4.--2.--6-6-6-6-6-6--------- 
D|-4.--2.-6-6-6--4.--2.--6-6-6-6-6-6---------
A|-2.--1.-6-6-6--2.--1.--4-4-4-4-4-4---------
D|--------6-6-6------------------------------

Guitarra 1:
e|-------------------------------------------
B|-------------------------------------------
G|------4-4-----------------4-4-------------- 
D|-6-6--4-4--4-4--2-2--4-4--4-4--------------
A|-6-6--2-2--4-4--2-2--4-4--2-2--------------
D|-6-6-------4-4--2-2--4-4-------------------

Guitarra 2: este es el riff y se repite
varias veces
e|-------------------------------------------
B|-----9------7------------------------------
G|---8---8----------------------------------- 
D|-7-------7---------------------------------
A|-------------------------------------------
D|-------------------------------------------

Verso: palm mute
cada acorde se toca mas veces
e|-------------------------------------------
B|-------------------------------------------
G|------4-4---------------------------------- 
D|-6-6--4-4--4-4--2-2------------------------
A|-6-6--2-2--4-4--2-2------------------------
D|-6-6-------4-4--2-2------------------------

No he comido nada........
cada acorde se toca mas veces
e|-------------------------------------------
B|-------------------------------------------
G|-4--2---------4--2--6-6-6-6-6-6------------ 
D|-4--2--6-6-6--4--2--6-6-6-6-6-6------------
A|-2--1--6-6-6--2--1--4-4-4-4-4-4------------
D|-------6-6-6------------------------------

Coro:
cada acorde se toca mas veces
e|-------------------------------------------
B|-------------------------------------------
G|------4-4---------------------------------- 
D|-6-6--4-4--4-4--2-2------------------------
A|-6-6--2-2--4-4--2-2------------------------
D|-6-6-------4-4--2-2------------------------

UHo u ooooooooooo
Guitarra 1:
e|-------------------------------------------
B|-------------------------------------------
G|-4-4-4-4----------------------------------- 
D|-4-4-4-4--2-2-2-2--6-6-6-6--4-4-4-4--------
A|-2-2-2-2--2-2-2-2--6-6-6-6--4-4-4-4--------
D|----------2-2-2-2--6-6-6-6--4-4-4-4--------

Guitarra 2: este es el riff y se repite
varias veces
e|-------------------------------------------
B|-----9------7------------------------------
G|---8---8----------------------------------- 
D|-7-------7---------------------------------
A|-------------------------------------------
D|-------------------------------------------

despues de varias veces cambia a esto:
cada acorde se toca mas veces
e|-------------------------------------------
B|-------------------------------------------
G|------4-4---------------------------------- 
D|-6-6--4-4--4-4--2-2------------------------
A|-6-6--2-2--4-4--2-2------------------------
D|-6-6-------4-4--2-2------------------------

Final:
e|-------------------------------------------
B|-------------------------------------------
G|------4-4---------------------------------- 
D|-6-6--4-4--4-4--2-2------------------------
A|-6-6--2-2--4-4--2-2------------------------
D|-6-6-------4-4--2-2------------------------

            
            
Suggest correction
Creating personal tab
Creating personal tab
You can edit any tab online and save it as your Personal.

You can edit, replace or remove any tab part or add personal notes – all changes will be seen only by you.

Personal tabs can be accessed anytime from any device, even offline.
Learn more »
Give kudos to tab author, rate the tab!
1 2 3 4 5
comments
print report bad tab
guest
Wanna post a correction for this tab? Suggest correction