Oops, an error
Loading. Please wait.

Invisible chords

206 views 1 this week
no commentswrite comment
1 2 3 4 5
3 more votes to show rating
add to favorites
×
Save as Personal and add changes to this tab that will be seen only by you. Learn more ›
×
You can save this tab as Personal to edit and correct it or add notes. All changes will be seen only by you. Learn more »
launch autoscroll
font size
0
reset
transpose
0
reset
simplify chords
display chords
guitar tuner
edit
Autoscroll
slow
fast
+/-
esc
set tempo
stop
Strumming
There is no strumming pattern for this song yet. and get +5 IQ
saludos! al enviar la primera canción el navegador me dio un error,
por eso la envié dos veces
creo que quedo mejor la otra versión. mas ordenada que esta.

Tema dedicado al eterno demonio de mi vida pasada. Luisana Elena Q,


STANDAR TUNNING

usen un sonido crunh, un poco de phase o flanger con delay para los adornos

INTRO Y RIFF
(Este riff se puede tocar sobre el verso 1 mientras otra guitarra acompaña)
  G                            C                    G                D/F
E---------------------------------------------------------------------
B---------------------------------------------------------------------
g------------3------------------3----------------3--------------------
d-------5-------------------5---------------------------------------0-   X4
a--6-------------------3-------------------5-------------------8-------
e---------------------------------------3-----------------10-----------

G                    C
Deja todo y vete
           G
sal de aquí
  D/F
Sigue
G                          C
Tu me destruyes tanto que
            G            D/F
ya no soy yo
        G               C
Y no me veras
          G
basta ya
  D/F
sigue
G                       C
y ya no sere
G                      C
nunca mas
  D/F
Visible
  D/F
Visible x2


RIFF 1
E-----------------555-6666--3v--------------------
B-----------3--------------------------------------
G---------------------------------------------------
D----5-5---------------------------------------------   X4
A----------------------------------------------------
E-----------------------------------------------------


             coro w/distor

D#                               C
       Tu y yo sabemos bien
G
es mejor
       Bb
desistir
D#                           C
      Tu y yo jugamos bien
       G
a hacernos
       Bb
invisibles

***EL PUENTE**

GUITARRA 1
G
|--------------------------
|--------------I-----------
|--------------I-----------
|---5--5-X---5---5-X--                   X5
|---5--5-X---5---5-X--
|---3--3-X---3-3--X----

GUITARRA 2
 D/F
           ¼ PU   halen sin miedo
|------------------------------------
|------------------------------------
|-----------------------------------
|-----------0------0-X-X---------0--        X5
|-------8--------8---X-X--------8----
|---10-------10----X-X-X------10---


D#
Nadie es culpable
                            C
como veneno en el aire
G
se esparce
D#
aquí ya nada es como antes
                    C
ahora somos dos
G
A parte
                                              D#
En este juego de dos no queda nada
                    C
que nos haga retroceder

coro
D#                               C
       Tu y yo sabemos bien
G
es mejor

D#                           C
      Tu y yo jugamos bien
       G
a hacernos
       Bb
Daaaaañoooo


RIFF
E-----------------555-6666--3v-------------
B-----------3-----------------------------
G------------------------------------------
D----5-5------------------------------------     INDEFINIDO SOBRE LO ULTIMO
A--------------------------------------------
E----------------------------------------------

BRIDGE FINAL

D#
No se como amarte
C
no somos los de antes                x5
G
No se


G
No se
G
No se

            
            
Suggest correction
Creating personal tab
Creating personal tab
You can edit any tab online and save it as your Personal.

You can edit, replace or remove any tab part or add personal notes – all changes will be seen only by you.

Personal tabs can be accessed anytime from any device, even offline.
Learn more »
Give kudos to tab author, rate the tab!
1 2 3 4 5
comments
print report bad tab
guest
Wanna post a correction for this tab? Suggest correction