Oops, an error
Loading. Please wait.

Disposal Of The Body tab

version 3
version 3

Whole song

Interactive

235 views 1 this week
no commentswrite comment
1 2 3 4 5
2 more votes to show rating
add to favorites
×
Save as Personal and add changes to this tab that will be seen only by you. Learn more ›
×
You can save this tab as Personal to edit and correct it or add notes. All changes will be seen only by you. Learn more »
launch autoscroll
font size
0
reset
how to read this tab
guitar tuner
backing track
0:00
0:00
edit
Autoscroll
slow
fast
+/-
esc
set tempo
stop
#----------------------------------PLEASE NOTE---------------------------------#
#This file is the author's own work and represents their interpretation of the #
#song. You may only use this file for private study, scholarship, or research. #
#------------------------------------------------------------------------------#
    


                              DISPOSAL OF THE BODY
                         As recorded by Cannibal Corpse
                    (From the 1998 Album GALLERY OF SUICIDE)

Words by Alex Webster; Alex Webster, George Fisher (Vocal Patterns)

Music by Alex Webster


Gtr I (Bb Eb Ab Db F Bb) - 'Pat O'Brien'
Gtr II (Bb Eb Ab Db F Bb) - 'Jack Owen'

   Intro
    Q=290Q=270   Q=290Q=270
   4/4
    Gtrs I, II
    H    Q  Q    H    Q  Q   4x
||-------------|-------------||
||o------------|------------o||
||-------------|-------------||
||-------------|-------------||
||o-5----3--2--|-6----4--3--o||
||--3----1--0--|-4----2--1---||


 Pre-verse
   E   H..                         W
|-------------------------------|---------------------------|
|-------------------------------|---------------------------|
|-------------------------------|---------------------------|
|-------------------------------|---------------------------|
|--2----------------------------|---------------------------|
|--0----------------------------|---------------------------|
|
| Gtr II
|  PM--------------------------------------------------------
|  |---3---| |-3-|  |-3-| |-3-|    |-3-| |-3-|  |-3-| |-3-|
|  E E     E E E E  E E E E E E    E E E E E E  E E E E E E
|-------------------------------|---------------------------|
|-------------------------------|---------------------------|
|-------------------------------|---------------------------|
|-------------------------------|---------------------------|
|-10-7-----7-7-7-7-10-7-7-7-7-7-|-10-7-7-7-7-7-10-7-7-7-7-7-|
|-------------------------------|---------------------------|


   W                           W
|---------------------------|----------------------------------|
|---------------------------|----------------------------------|
|---------------------------|----------------------------------|
|---------------------------|----------------------------------|
|---------------------------|----------------------------------|
|---------------------------|----------------------------------|
|
|----------------------------------------|
|  |-3-| |-3-|  |-3-| |-3-|    |-3-| |-3-|  |--3--|  |--3--|
|  E E E E E E  E E E E E E    E E E E E E  E  E  E  E  E  E
|---------------------------|----------------------------------|
|---------------------------|----------------------------------|
|---------------------------|----------------------------------|
|---------------------------|----------------------------------|
|-10-7-7-7-7-7-10-7-7-7-7-7-|-10-7-7-7-7-7-10h13p10-11h14p11---|
|---------------------------|----------------------------------|


   E   H..                         W
|-------------------------------|---------------------------|
|-------------------------------|---------------------------|
|-------------------------------|---------------------------|
|-------------------------------|---------------------------|
|--2----------------------------|---------------------------|
|--0----------------------------|---------------------------|
|
|  PM--------------------------------------------------------
|  |---3---| |-3-|  |-3-| |-3-|    |-3-| |-3-|  |-3-| |-3-|
|  E E     E E E E  E E E E E E    E E E E E E  E E E E E E
|-------------------------------|---------------------------|
|-------------------------------|---------------------------|
|-------------------------------|---------------------------|
|-------------------------------|---------------------------|
|-10-7-----7-7-7-7-10-7-7-7-7-7-|-10-7-7-7-7-7-10-7-7-7-7-7-|
|-------------------------------|---------------------------|


   W                           W
|---------------------------|-------------------------------------|
|---------------------------|-------------------------------------|
|---------------------------|-------------------------------------|
|---------------------------|-------------------------------------|
|---------------------------|-------------------------------------|
|---------------------------|-------------------------------------|
|
|-----------------------|
|  |-3-| |-3-|  |-3-| |-3-|    |--3--|  |--3--|  |--3--| |-3--|
|  E E E E E E  E E E E E E    E  E  E  E  E  E  E  E  E E  E E
|---------------------------|-------------------------------------|
|---------------------------|-------------------------------------|
|---------------------------|-------------------------------------|
|---------------------------|-------------------------------------|
|-10-7-7-7-7-7-10-7-7-7-7-7-|-10h13p10-11h14p11-10h13p10-8h11p8---|
|---------------------------|-------------------------------------|


  Gtrs I, II
   PM-------------------------------------------------|
   |-3-| |-3-|  |-3-| |-3-|    |-3-| |-3-|  |-3-| |-3-|
   E E E E E E  E E E E E E    E E E E E E  E E E E E E
|---------------------------|---------------------------|
|---------------------------|---------------------------|
|---------------------------|---------------------------|
|---------------------------|---------------------------|
|-10-7-7-7-7-7-10-7-7-7-7-7-|-10-7-7-7-7-7-10-7-7-7-7-7-|
|---------------------------|---------------------------|


   |--3--|  |--3--|  |--3--|  |--3--|    |--3--|  |--3--|  |--3--| |-3--|
   E  E  E  E  E  E  E  E  E  E  E  E    E  E  E  E  E  E  E  E  E E  E E
|-------------------------------------|--------------------------------------|
|-------------------------------------|--------------------------------------|
|-------------------------------------|--------------------------------------|
|-------------------------------------|--------------------------------------|
|-10h13p10-11h14p11-10h13p10-11h14p11-|-10h13p10-11h14p11-10h13p10-8h11p8----|
|-------------------------------------|--------------------------------------|


   PM-------------------------------------------------|
   |-3-| |-3-|  |-3-| |-3-|    |-3-| |-3-|  |-3-| |-3-|
   E E E E E E  E E E E E E    E E E E E E  E E E E E E
|---------------------------|---------------------------|
|---------------------------|---------------------------|
|---------------------------|---------------------------|
|---------------------------|---------------------------|
|-10-7-7-7-7-7-10-7-7-7-7-7-|-10-7-7-7-7-7-10-7-7-7-7-7-|
|---------------------------|---------------------------|
|
| Gtr II
|  PM-------------------------------------------------|
|  |-3-| |-3-|  |-3-| |-3-|    |-3-| |-3-|  |-3-| |-3-|
|  E E E E E E  E E E E E E    E E E E E E  E E E E E E
|---------------------------|---------------------------|
|---------------------------|---------------------------|
|---------------------------|---------------------------|
|---------------------------|---------------------------|
|-10-7-7-7-7-7-10-7-7-7-7-7-|-10-7-7-7-7-7-10-7-7-7-7-7-|
|---------------------------|---------------------------|


   |--3--|  |--3--|  |--3--|  |--3--|   |-3--| |-3--| |-3--| |-3--|
   E  E  E  E  E  E  E  E  E  E  E  E   E  E E E  E E E  E E E  E E
|-------------------------------------|--------------------------------|
|-------------------------------------|--------------------------------|
|-------------------------------------|--------------------------------|
|-------------------------------------|--------------------------------|
|-11h14p11-11h14p11-10h13p10-10h13p10-|-9h12p9-9h12p9-8h11p8-8h11p8----|
|-------------------------------------|--------------------------------|
|
|  |--3--|  |--3--|  |--3--|  |--3--|   |-3--| |-3--| |-3--| |-3--|
|  E  E  E  E  E  E  E  E  E  E  E  E   E  E E E  E E E  E E E  E E
|-------------------------------------|--------------------------------|
|-------------------------------------|--------------------------------|
|-------------------------------------|--------------------------------|
|-------------------------------------|--------------------------------|
|-------------------------------------|--------------------------------|
|--4h=7p=4--4h=7p=4--3h=6p=3--3h=6p=3-|-2h=5p2-2h=5p2-1h=4p1-1h=4p1----|


 Verse
  Gtrs I, II
   PM----------------------------------------------------
   |-3-| |-3-|  |-3-| |-3-|    |-3-| |-3-|  |-3-| |-3-|
   E E E E E E  E E E E E E    E E E E E E  E E E E E E
|---------------------------|---------------------------|
|---------------------------|---------------------------|
|---------------------------|---------------------------|
|---------------------------|---------------------------|
|-10-7-7-7-7-7-10-7-7-7-7-7-|-10-7-7-7-7-7-10-7-7-7-7-7-|
|---------------------------|---------------------------|


 ----------------------------------------|
   |-3-| |-3-|  |-3-| |-3-|    |-3-| |-3-|  |--3--|  |--3--|
   E E E E E E  E E E E E E    E E E E E E  E  E  E  E  E  E
|---------------------------|-----------------------------------|
|---------------------------|-----------------------------------|
|---------------------------|-----------------------------------|
|---------------------------|-----------------------------------|
|-10-7-7-7-7-7-10-7-7-7-7-7-|-10-7-7-7-7-7-10h13p10-11h14p11----|
|---------------------------|-----------------------------------|


  $
   PM----------------------------------------------------
   |-3-| |-3-|  |-3-| |-3-|    |-3-| |-3-|  |-3-| |-3-|
   E E E E E E  E E E E E E    E E E E E E  E E E E E E
|---------------------------|---------------------------|
|---------------------------|---------------------------|
|---------------------------|---------------------------|
|---------------------------|---------------------------|
|-10-7-7-7-7-7-10-7-7-7-7-7-|-10-7-7-7-7-7-10-7-7-7-7-7-|
|---------------------------|---------------------------|


 -----------------------|
   |-3-| |-3-|  |-3-| |-3-|    |--3--|  |--3--|  |--3--| |-3--|
   E E E E E E  E E E E E E    E  E  E  E  E  E  E  E  E E  E E
|---------------------------|--------------------------------------|
|---------------------------|--------------------------------------|
|---------------------------|--------------------------------------|
|---------------------------|--------------------------------------|
|-10-7-7-7-7-7-10-7-7-7-7-7-|-10h13p10-11h14p11-10h13p10-8h11p8----|
|---------------------------|--------------------------------------|


   PM-------------------------------------------------|
   |-3-| |-3-|  |-3-| |-3-|    |-3-| |-3-|  |-3-| |-3-|
   E E E E E E  E E E E E E    E E E E E E  E E E E E E
|---------------------------|---------------------------|
|---------------------------|---------------------------|
|---------------------------|---------------------------|
|---------------------------|---------------------------|
|-10-7-7-7-7-7-10-7-7-7-7-7-|-10-7-7-7-7-7-10-7-7-7-7-7-|
|---------------------------|---------------------------|


   |--3--|  |--3--|  |--3--|  |--3--|    |--3--|  |--3--|  |--3--| |-3--|
   E  E  E  E  E  E  E  E  E  E  E  E    E  E  E  E  E  E  E  E  E E  E E
|-------------------------------------|--------------------------------------|
|-------------------------------------|--------------------------------------|
|-------------------------------------|--------------------------------------|
|-------------------------------------|--------------------------------------|
|-10h13p10-11h14p11-10h13p10-11h14p11-|-10h13p10-11h14p11-10h13p10-8h11p8----|
|-------------------------------------|--------------------------------------|


   PM-------------------------------------------------|
   |-3-| |-3-|  |-3-| |-3-|    |-3-| |-3-|  |-3-| |-3-|
   E E E E E E  E E E E E E    E E E E E E  E E E E E E
|---------------------------|---------------------------|
|---------------------------|---------------------------|
|---------------------------|---------------------------|
|---------------------------|---------------------------|
|-10-7-7-7-7-7-10-7-7-7-7-7-|-10-7-7-7-7-7-10-7-7-7-7-7-|
|---------------------------|---------------------------|
|
| Gtr II
|  PM-------------------------------------------------|
|  |-3-| |-3-|  |-3-| |-3-|    |-3-| |-3-|  |-3-| |-3-|
|  E E E E E E  E E E E E E    E E E E E E  E E E E E E
|---------------------------|---------------------------|
|---------------------------|---------------------------|
|---------------------------|---------------------------|
|---------------------------|---------------------------|
|-10-7-7-7-7-7-10-7-7-7-7-7-|-10-7-7-7-7-7-10-7-7-7-7-7-|
|---------------------------|---------------------------|


   |--3--|  |--3--|  |--3--|  |--3--|   |-3--| |-3--| |-3--| |-3--|
   E  E  E  E  E  E  E  E  E  E  E  E   E  E E E  E E E  E E E  E E
|-------------------------------------|--------------------------------|
|-------------------------------------|--------------------------------|
|-------------------------------------|--------------------------------|
|-------------------------------------|--------------------------------|
|-11h14p11-11h14p11-10h13p10-10h13p10-|-9h12p9-9h12p9-8h11p8-8h11p8----|
|-------------------------------------|--------------------------------|
|
|  |--3--|  |--3--|  |--3--|  |--3--|   |-3--| |-3--| |-3--| |-3--|
|  E  E  E  E  E  E  E  E  E  E  E  E   E  E E E  E E E  E E E  E E
|-------------------------------------|--------------------------------|
|-------------------------------------|--------------------------------|
|-------------------------------------|--------------------------------|
|-------------------------------------|--------------------------------|
|-------------------------------------|--------------------------------|
|--4h=7p=4--4h=7p=4--3h=6p=3--3h=6p=3-|-2h=5p2-2h=5p2-1h=4p1-1h=4p1----|


   Chorus
    |-3-| |-3-| |-3-| |-3-|   |-3-| |-3-| |-3-| |-3-|
    E E E E E E E E E E E E   E E E E E E E E E E E E
||--------------------------|-------------------------|
||o-------------------------|-------------------------|
||--------------------------|-------------------------|
||--------------------------|-------------------5-5-5-|
||o-7-7-7-7-7-7-------------|-------------4-4-4-------|
||--------------7-7-7-6-6-6-|-3-3-3-3-3-3-------------|
|
|   |-3-| |-3-| |-3-| |-3-|   |-3-| |-3-| |-3-| |-3-|
|   E E E E E E E E E E E E   E E E E E E E E E E E E
||--------------------------|-------------------------|
||o-------------------------|-------------------------|
||--------------------------|-------------------------|
||--------------------------|-------------------5-5-5-|
||o-7-7-7-7-7-7-------------|-------------4-4-4-------|
||--------------7-7-7-6-6-6-|-3-3-3-3-3-3-------------|


  |-3-| |-3-| |-3-| |-3-|    |--3--|  |--3--| |-3-| |-3-|
  E E E E E E E E E E E E    E  E  E  E  E  E E E E E E E
|-------------------------|----------------------------------|
|-------------------------|----------------------------------|
|-------------------------|----------------------------------|
|-9-9-9-9-9-9-------------|----------------------------------|
|-------------8-8-8-7-7-7-|-10-10-10-10-10-10-8-8-8-8-8-8----|
|-------------------------|----------------------------------|
|
| |-3-| |-3-| |-3-| |-3-|    |--3--|  |--3--| |-3-| |-3-|
| E E E E E E E E E E E E    E  E  E  E  E  E E E E E E E
|-------------------------|----------------------------------|
|-------------------------|----------------------------------|
|-------------------------|----------------------------------|
|-------------6-6-6-5-5-5-|--8--8--8--8--8--8-6-6-6-6-6-6----|
|-7-7-7-7-7-7-------------|----------------------------------|
|-------------------------|----------------------------------|


  |-3-| |-3-| |-3-| |-3-|   |-3-| |-3-| |-3-| |-3-|
  E E E E E E E E E E E E   E E E E E E E E E E E E
|-------------------------|-------------------------|
|-------------------------|-------------------------|
|-------------------------|-------------------------|
|-------------------------|-------------------5-5-5-|
|-7-7-7-7-7-7-------------|-------------4-4-4-------|
|-------------7-7-7-6-6-6-|-3-3-3-3-3-3-------------|
|
| |-3-| |-3-| |-3-| |-3-|   |-3-| |-3-| |-3-| |-3-|
| E E E E E E E E E E E E   E E E E E E E E E E E E
|-------------------------|-------------------------|
|-------------------------|-------------------------|
|-------------------------|-------------------------|
|-------------------------|-------------------5-5-5-|
|-7-7-7-7-7-7-------------|-------------4-4-4-------|
|-------------7-7-7-6-6-6-|-3-3-3-3-3-3-------------|


                                             To Coda
  |-3-| |-3-| |-3-| |-3-|   |-3-| |-3-| |-3-|  |--3--|
  E E E E E E E E E E E E   E E E E E E E E E  E  E  E
|-------------------------|--------------------------------||
|-------------------------|-------------------11-11-11----o||
|-------------------9-9-9-|-------------9-9-9--------------||
|-------------8-8-8-------|-8-8-8-8-8-8--------------------||
|-7-7-7-7-7-7-------------|-------------------------------o||
|-------------------------|--------------------------------||
|
| |-3-| |-3-| |-3-| |-3-|   |-3-| |-3-| |-3-|  |--3--|
| E E E E E E E E E E E E   E E E E E E E E E  E  E  E
|-------------------------|--------------------------------||
|-------------------------|--------------------8--8--8----o||
|-------------------6-6-6-|-------------6-6-6--------------||
|-------------5-5-5-------|-5-5-5-5-5-5--------------------||
|-4-4-4-4-4-4-------------|-------------------------------o||
|-------------------------|--------------------------------||


 Pre-verse
   E   H..                         W
|-------------------------------|---------------------------|
|-------------------------------|---------------------------|
|-------------------------------|---------------------------|
|-------------------------------|---------------------------|
|--2----------------------------|---------------------------|
|--0----------------------------|---------------------------|
|
|  PM--------------------------------------------------------
|  |---3---| |-3-|  |-3-| |-3-|    |-3-| |-3-|  |-3-| |-3-|
|  E E     E E E E  E E E E E E    E E E E E E  E E E E E E
|-------------------------------|---------------------------|
|-------------------------------|---------------------------|
|-------------------------------|---------------------------|
|-------------------------------|---------------------------|
|-10-7-----7-7-7-7-10-7-7-7-7-7-|-10-7-7-7-7-7-10-7-7-7-7-7-|
|-------------------------------|---------------------------|


                                                      D.S.
   W                           W
|---------------------------|----------------------------------|
|---------------------------|----------------------------------|
|---------------------------|----------------------------------|
|---------------------------|----------------------------------|
|---------------------------|----------------------------------|
|---------------------------|----------------------------------|
|
|----------------------------------------|
|  |-3-| |-3-|  |-3-| |-3-|    |-3-| |-3-|  |--3--|  |--3--|
|  E E E E E E  E E E E E E    E E E E E E  E  E  E  E  E  E
|---------------------------|----------------------------------|
|---------------------------|----------------------------------|
|---------------------------|----------------------------------|
|---------------------------|----------------------------------|
|-10-7-7-7-7-7-10-7-7-7-7-7-|-10-7-7-7-7-7-10h13p10-11h14p11---|
|---------------------------|----------------------------------|


 Verse II
  Q=290Q=270   Q=290Q=270   Q=290Q=270   Q=290Q=270
  &
 4/4
  Gtrs I, II
  H    Q  Q    H    Q  Q    H    Q  Q    H    Q  Q
|------------|------------|------------|-------------|
|------------|------------|------------|-------------|
|------------|------------|------------|-------------|
|------------|------------|------------|-------------|
|-5----3--2--|-6----4--3--|-8----6--5--|-9----7--6---|
|-3----1--0--|-4----2--1--|-6----4--3--|-7----5--4---|


  Q=290 Q=270   Q=290 Q=270    Q=290 Q=270     Q=290 Q=270
   H    Q  Q     H     Q  Q     H     Q   Q     H     Q   Q
|-------------|--------------|---------------|---------------|
|-------------|--------------|---------------|---------------|
|-------------|--------------|---------------|---------------|
|-------------|--------------|---------------|---------------|
|-11----9--8--|-12----10--9--|-14----12--11--|-15----13--12--|
|--9----7--6--|-10-----8--7--|-12----10---9--|-13----11--10--|


 Interlude
  Slower Q=200
 6/8
  PM-----------------------------------------
  E S S S S E S S S S   E S S S S E S S S S
|---------------------|---------------------|
|---------------------|---------------------|
|---------------------|---------------------|
|---------------------|---------------------|
|---------------------|---------------------|
|-3-0-0-0-0-3-0-0-0-0-|-3-0-0-0-0-3-0-0-0-0-|


 -------------------------------|
  E S S S S E S S S S   E S S S S S S S S S S
|---------------------|-------------------------|
|---------------------|-------------------------|
|---------------------|-------------------------|
|---------------------|-------------------------|
|---------------------|-------------------------|
|-3-0-0-0-0-3-0-0-0-0-|-3-0-0-0-0-3h6p3-4h7p4---|


  PM-----------------------------------------
  E S S S S E S S S S   E S S S S E S S S S
|---------------------|---------------------|
|---------------------|---------------------|
|---------------------|---------------------|
|---------------------|---------------------|
|---------------------|---------------------|
|-3-0-0-0-0-3-0-0-0-0-|-3-0-0-0-0-3-0-0-0-0-|


 -------------------|
  E S S S S E S S S S   S S S S S S S S S S S S
|---------------------|---------------------------|
|---------------------|---------------------------|
|---------------------|---------------------------|
|---------------------|---------------------------|
|---------------------|---------------------------|
|-3-0-0-0-0-3-0-0-0-0-|-3h6p3-4h7p4-3h6p3-1h4p1---|


  PM--------------------------------------|
  E S S S S E S S S S   E S S S S E S S S S
|---------------------|---------------------|
|---------------------|---------------------|
|---------------------|---------------------|
|---------------------|---------------------|
|---------------------|---------------------|
|-3-0-0-0-0-3-0-0-0-0-|-3-0-0-0-0-3-0-0-0-0-|


  S S S S S S S S S S S S   S S S S S S S S S S S S
|-------------------------|-------------------------|
|-------------------------|-------------------------|
|-------------------------|-------------------------|
|-------------------------|-------------------------|
|-------------------------|-------------------------|
|-3h6p3-4h7p4-3h6p3-4h7p4-|-3h6p3-4h7p4-3h6p3-1h4p1-|


  PM--------------------------------------|
  E S S S S E S S S S   E S S S S E S S S S
|---------------------|---------------------|
|---------------------|---------------------|
|---------------------|---------------------|
|---------------------|---------------------|
|---------------------|---------------------|
|-3-0-0-0-0-3-0-0-0-0-|-3-0-0-0-0-3-0-0-0-0-|
|
| Gtr II
| PM--------------------------------------|
| E S S S S E S S S S   E S S S S E S S S S
|---------------------|---------------------|
|---------------------|---------------------|
|---------------------|---------------------|
|---------------------|---------------------|
|---------------------|---------------------|
|-3-0-0-0-0-3-0-0-0-0-|-3-0-0-0-0-3-0-0-0-0-|


   S  S  S  S  S  S  S  S  S  S  S  S   S  S S S  S S S  S S S  S S
|-------------------------------------|-----------------------------|
|-------------------------------------|-----------------------------|
|-------------------------------------|-----------------------------|
|-------------------------------------|-----------------------------|
|-------------------------------------|-----------------------------|
|--4h=7p=4--4h=7p=4--3h=6p=3--3h=6p=3-|-2h=5p2-2h=5p2-1h=4p1-1h=4p1-|
|
|  S  S  S  S  S  S  S  S  S  S  S  S   S  S S S  S S S  S S S  S S
|-------------------------------------|-----------------------------|
|-------------------------------------|-----------------------------|
|-------------------------------------|-----------------------------|
|-------------------------------------|-----------------------------|
|-11h14p11-11h14p11-10h13p10-10h13p10-|-9h12p9-9h12p9-8h11p8-8h11p8-|
|-------------------------------------|-----------------------------|


 Solo Rythym
  Faster Q=270
 4/4
  Gtrs I, II
   PM----------------------------------------------------
   |-3-| |-3-|  |-3-| |-3-|    |-3-| |-3-|  |-3-| |-3-|
   E E E E E E  E E E E E E    E E E E E E  E E E E E E
|---------------------------|---------------------------|
|---------------------------|---------------------------|
|---------------------------|---------------------------|
|---------------------------|---------------------------|
|-10-7-7-7-7-7-10-7-7-7-7-7-|-10-7-7-7-7-7-10-7-7-7-7-7-|
|---------------------------|---------------------------|


 ----------------------------------------|
   |-3-| |-3-|  |-3-| |-3-|    |-3-| |-3-|  |--3--|  |--3--|
   E E E E E E  E E E E E E    E E E E E E  E  E  E  E  E  E
|---------------------------|----------------------------------|
|---------------------------|----------------------------------|
|---------------------------|----------------------------------|
|---------------------------|----------------------------------|
|-10-7-7-7-7-7-10-7-7-7-7-7-|-10-7-7-7-7-7-10h13p10-11h14p11---|
|---------------------------|----------------------------------|


   PM----------------------------------------------------
   |-3-| |-3-|  |-3-| |-3-|    |-3-| |-3-|  |-3-| |-3-|
   E E E E E E  E E E E E E    E E E E E E  E E E E E E
|---------------------------|---------------------------|
|---------------------------|---------------------------|
|---------------------------|---------------------------|
|---------------------------|---------------------------|
|-10-7-7-7-7-7-10-7-7-7-7-7-|-10-7-7-7-7-7-10-7-7-7-7-7-|
|---------------------------|---------------------------|


 -----------------------|
   |-3-| |-3-|  |-3-| |-3-|    |--3--|  |--3--|  |--3--| |-3--|
   E E E E E E  E E E E E E    E  E  E  E  E  E  E  E  E E  E E
|---------------------------|--------------------------------------|
|---------------------------|--------------------------------------|
|---------------------------|--------------------------------------|
|---------------------------|--------------------------------------|
|-10-7-7-7-7-7-10-7-7-7-7-7-|-10h13p10-11h14p11-10h13p10-8h11p8----|
|---------------------------|--------------------------------------|


   PM-------------------------------------------------|
   |-3-| |-3-|  |-3-| |-3-|    |-3-| |-3-|  |-3-| |-3-|
   E E E E E E  E E E E E E    E E E E E E  E E E E E E
|---------------------------|---------------------------|
|---------------------------|---------------------------|
|---------------------------|---------------------------|
|---------------------------|---------------------------|
|-10-7-7-7-7-7-10-7-7-7-7-7-|-10-7-7-7-7-7-10-7-7-7-7-7-|
|---------------------------|---------------------------|


   |--3--|  |--3--|  |--3--|  |--3--|    |--3--|  |--3--|  |--3--| |-3--|
   E  E  E  E  E  E  E  E  E  E  E  E    E  E  E  E  E  E  E  E  E E  E E
|-------------------------------------|--------------------------------------|
|-------------------------------------|--------------------------------------|
|-------------------------------------|--------------------------------------|
|-------------------------------------|--------------------------------------|
|-10h13p10-11h14p11-10h13p10-11h14p11-|-10h13p10-11h14p11-10h13p10-8h11p8----|
|-------------------------------------|--------------------------------------|


   PM-------------------------------------------------|
   |-3-| |-3-|  |-3-| |-3-|    |-3-| |-3-|  |-3-| |-3-|
   E E E E E E  E E E E E E    E E E E E E  E E E E E E
|---------------------------|---------------------------|
|---------------------------|---------------------------|
|---------------------------|---------------------------|
|---------------------------|---------------------------|
|-10-7-7-7-7-7-10-7-7-7-7-7-|-10-7-7-7-7-7-10-7-7-7-7-7-|
|---------------------------|---------------------------|
|
| Gtr II
|  PM-------------------------------------------------|
|  |-3-| |-3-|  |-3-| |-3-|    |-3-| |-3-|  |-3-| |-3-|
|  E E E E E E  E E E E E E    E E E E E E  E E E E E E
|---------------------------|---------------------------|
|---------------------------|---------------------------|
|---------------------------|---------------------------|
|---------------------------|---------------------------|
|-10-7-7-7-7-7-10-7-7-7-7-7-|-10-7-7-7-7-7-10-7-7-7-7-7-|
|---------------------------|---------------------------|


   |--3--|  |--3--|  |--3--|  |--3--|   |-3--| |-3--| |-3--| |-3--|
   E  E  E  E  E  E  E  E  E  E  E  E   E  E E E  E E E  E E E  E E
|-------------------------------------|--------------------------------|
|-------------------------------------|--------------------------------|
|-------------------------------------|--------------------------------|
|-------------------------------------|--------------------------------|
|-11h14p11-11h14p11-10h13p10-10h13p10-|-9h12p9-9h12p9-8h11p8-8h11p8----|
|-------------------------------------|--------------------------------|
|
|  |--3--|  |--3--|  |--3--|  |--3--|   |-3--| |-3--| |-3--| |-3--|
|  E  E  E  E  E  E  E  E  E  E  E  E   E  E E E  E E E  E E E  E E
|-------------------------------------|--------------------------------|
|-------------------------------------|--------------------------------|
|-------------------------------------|--------------------------------|
|-------------------------------------|--------------------------------|
|-------------------------------------|--------------------------------|
|--4h=7p=4--4h=7p=4--3h=6p=3--3h=6p=3-|-2h=5p2-2h=5p2-1h=4p1-1h=4p1----|


 Outro
               2/4
  Gtrs I, II
  Q  H.         H
|------------||------*|
|------------||------*|
|------------||------*|
|------------||------*|
|-2----------||------*|
|-0----------||------*|


Duration Legend
---------------
W - whole; H - half; Q - quarter; E - 8th; S - 16th; T - 32nd; X - 64th; a - acciaccatura
+ - note tied to previous; . - note dotted; .. - note double dotted
Uncapitalized letters represent notes that are staccato (1/2 duration)
Irregular groupings are notated above the duration line
Duration letters will always appear directly above the note/fret number it represents the
duration for.  Duration letters with no fret number below them represent rests.  Multi-
bar rests are notated in the form Wxn, where n is the number of bars to rest for.  Low
melody durations appear below the staff

Tablature Legend
----------------
 h   - hammer-on
 p   - pull-off
 b   - bend
 pb  - pre-bend
 r   - bend release (if no number after the r, then release immediately)
 /\  - slide into or out of (from/to "nowhere")
 s   - legato slide
 S   - shift slide
  - natural harmonic
[n]  - artificial harmonic
n(n) - tapped harmonic
 ~   - vibrato
 tr  - trill
 T   - tap
 TP  - trem. picking
 PM  - palm muting
\n/  - tremolo bar dip; n = amount to dip
 \n  - tremolo bar down
 n/  - tremolo bar up
/n\  - tremolo bar inverted dip
 =   - hold bend; also acts as connecting device for hammers/pulls
 <>  - volume swell (louder/softer)
 x   - on rhythm slash represents muted slash
 o   - on rhythm slash represents single note slash

Misc Legend
-----------
 |  - bar
||  - double bar
||o - repeat start
o|| - repeat end
*|  - double bar (ending)
 :  - bar (freetime)
 $  - Segno
 &  - Coda
Tempo markers -  = BPM(8/16=s8/s16), where s8 = swing 8ths, s16 = swing 16ths

            
            
Suggest correction
Creating personal tab
Creating personal tab
You can edit any tab online and save it as your Personal.

You can edit, replace or remove any tab part or add personal notes – all changes will be seen only by you.

Personal tabs can be accessed anytime from any device, even offline.
Learn more »
Give kudos to tab author, rate the tab!
1 2 3 4 5
comments
print report bad tab
guest
You may want to rate the tab now too:
select rating
Wanna post a correction for this tab? Suggest correction