Oops, an error
Loading. Please wait.

Pit Of Zombies tab

version 2
version 2

Whole song

Interactive

323 views 1 this week
no commentswrite comment
1 2 3 4 5
3 more votes to show rating
add to favorites
×
Save as Personal and add changes to this tab that will be seen only by you. Learn more ›
×
You can save this tab as Personal to edit and correct it or add notes. All changes will be seen only by you. Learn more »
launch autoscroll
font size
0
reset
how to read this tab
guitar tuner
edit
Autoscroll
slow
fast
+/-
esc
set tempo
stop
Band:  Cannibal Corpse
Album: Gore Obsessed
Song:  Pit Of Zombies



.   - palm mute           /  - slide up to
\   - slide down to       ~  - vibrato
h   - hammer on           b  - Bend
p   - pull off            Suffixes for bend
t   - tap                 f  - full bend    h - half bend
ph  - pinched harmonic    q  - quarter bend t - tap bend
*   - see comment         ^  - Hold bend    r release bend
x   - Stuccatto           ~  - vibrato bend
,   - slight palm mute    () - ghost note, sustained note
"   - tremolo note        <> - Trill
chnl- Channel


TUNING (low to high) : Bb Eb Ab Db Gb Bb


(0:00)
Intro Riff
|---------------------------------------------------------------|
|---------------------------------------------------------------|
|---------------------------------------------------------------|
|7-7------------------------7-7---------------------------------|
|5-5---------------2---2----5-5---------------6--------6--------|
|----444444-111111--111-111-----444444-111111-4-111111-4-444444-|
     ...... ......  ... ...     ...... ......   ......   ......


----------------------------------------------------------------|
----------------------------------------------------------------|
----------------------------------------------------------------|
-7-7------------------------------------------------------------|
-5-5---------------8----7----6------11---------10----9----8-----|
-----444444-777777--777--666--555-----10-10-10---999--888--777--|
     ...... ......  ...  ...  ...     .  .  .    ...  ...  ...


------------------------------------|
------------------------------------|
------------------------------------|
------------------------------------|
-7----6------11----------10----9----|
--666--555------10-10-10---999--888-|
  ...  ...      .  .  .    ...  ...




(0:13)
Rhythm Fig. 1
|-------------------------------------- ---------------------------------------|
|-------------------------------------- ---------------------------------------|
|-------------------------------------- ---------------------------------------|
|------------------------5/8--8\5--5/8- ------------------------5/8-8/11--11\8-|
|-----5----6-5----6-5------------------ ------5---6-5----6-5-------------------|
|6tr7-3--0-4-3--0-4-3-0--3/6--6\3--3/6- -6tr7-3-0-4-3--0-4-3-0--3/6-6/9----9\6-|
         . . .  . . . .                         . . .  . . . .


------------------------------------- ----------------------------------------|
------------------------------------- ----------------------------------------|
------------------------------------- ----------------------------------------|
-----------------------5/8--8\5--5/8- ------------------------5/8--8/11--11\8-|
-----5---6-5----6-5------------------ ------5----6-5---6-5--------------------|
6tr7-3-0-4-3--0-4-3-0--3/6--6\3--3/6- -6tr7-3--0-4-3-0-4-3-0--3/6--6/9----9\6-|
       . . .  . . . .                          . . . . . . .


------------------------------------- ---------------------------------------|
------------------------------------- ---------------------------------------|
------------------------------------- ---------------------------------------|
-----------------------5/8--8\5--5/8- ------------------------5/8-8/11--11\8-|
-----5---6-5----6-5------------------ ------5---6-5----6-5-------------------|
6tr7-3-0-4-3--0-4-3-0--3/6--6\3--3/6- -6tr7-3-0-4-3--0-4-3-0--3/6-6/9----9\6-|
       . . .  . . . .                         . . .  . . . .


-----------------------------------------------------------------|
-----------------------------------------------------------------|
-----------------------------------------------------------------|
11\8--8--11\8-8---------------------------11\8--8--11\8--8-------|
-----------------------5----5-5----5-5---------------------------|
-9\6--6---9\6-6--6tr7--3-0--3-3-0--3-3-0---9\6--6---9\6--6--6tr7-|
                       . .  . . .  . . .


------------------ -----------------------------------------|
------------------ -----------------------------------------|
------------------ -----------------------------------------|
---5--9-8--12--12- -11\8--8--11\8-8-------------------------|
7----------------- ------------------------5----5-5---5-5---|
0--3--7-6--10--10- --9\6--6---9\6-6--6tr7--3-0--3-3-0-3-3-0-|
                                           . .  . . . . . .


-----------------------------------------|
-----------------------------------------|
-----------------------------------------|
11\8--8--11\8-8-----------5--9-8--12--12-|
-----------------------7-----------------|
-9\6--6---9\6-6--6tr7--0--3--7-6--10--10-|




(0:40)
Rhythm Fig. 2
|-------------------------------------- ---------------------------------------|
|-------------------------------------- ---------------------------------------|
|-------------------------------------- ---------------------------------------|
|------------------------5/8--8\5--5/8- ------------------------5/8-8/11--11\8-|
|-----5----6-5----6-5------------------ ------5---6-5----6-5-------------------|
|6tr7-3--0-4-3--0-4-3-0--3/6--6\3--3/6- -6tr7-3-0-4-3--0-4-3-0--3/6-6/9----9\6-|
         . . .  . . . .                         . . .  . . . .


-------------------------------------- ----------------------------------------|
-------------------------------------- ----------------------------------------|
-------------------------------------- ----------------------------------------|
------------------------5/8--8\5--5/8- ------------------------5/8--8/11--11\8-|
-----5----6-5----6-5------------------ ------5----6-5---6-5--------------------|
6tr7-3--0-4-3--0-4-3-0--3/6--6\3--3/6- -6tr7-3--0-4-3-0-4-3-0--3/6--6/9----9\6-|
        . . .  . . . .                          . . . . . . .


---------------------------------------- ----------------------------------------|
---------------------------------------- ----------------------------------------|
---------------------------------------- ----------------------------------------|
11\8--8--11\8-8------------------------- 11\8--8--11\8-8----------5--9-8--12--12-|
-----------------------5----5-5---5-5--- ----------------------7-----------------|
-9\6--6---9\6-6--6tr7--3-0--3-3-0-3-3-0- -9\6--6---9\6-6--6tr7-0--3--7-6--10--10-|
                       . .  . . . . . .


---------------------------------------- ---------------------------------|
---------------------------------------- ---------------------------------|
---------------------------------------- ---------------------------------|
11\8--8--11\8-8------------------------- 11\8--8--11\8-8-----------5--9-8-|
-----------------------5----5-5---5-5--- -----------------------7---------|
-9\6--6---9\6-6--6tr7--3-0--3-3-0-3-3-0- -9\6--6---9\6-6--6tr7--0--3--7-6-|
                       . .  . . . . . .




Intro Riff      (1:02)
Rhythm Fig. 2   (1:14)




(1:35)
Intro Riff Variation
|---------------------------------------------------------------|
|---------------------------------------------------------------|
|---------------------------------------------------------------|
|7-7------------------------7-7---------------------------------|
|5-5---------------2---2----5-5---------------6--------6--------|
|----444444-111111--111-111-----444444-111111-4-111111-4-444444-|
     ...... ......  ... ...     ...... ......   ......   ......


---------------------------------------------------------------------|
---------------------------------------------------------------------|
---------------------------------------------------------------------|
-7-7---------------------------------------7-7-----------------------|
-5-5---------------8----7----6-----8--7--6-5-5--------------2---2----|
-----444444-777777--777--666--555---7--6------444444-111111--111-111-|
     ...... ......  ...  ...  ...   .  .      ...... ......  ... ...


-----------------------------------------------------------------------|
-----------------------------------------------------------------------|
-----------------------------------------------------------------------|
7-7---------------------------------7-7--------------------------------|
5-5---------------6--------6--------5-5---------------8----7-----6-----|
----444444-111111-4-111111-4-111111-----444444-777777--777---666---555-|
    ...... ......   ......   ......     ...... ......  ...   ...   ...


Both Channels 2 Times
-----------------------------------------|
-----------------------------------------|
-----------------------------------------|
-----------------------------------------|
11----------10----9----8-----7-----6-----|
---10-10-10---999--888---777---666---555-|
   .  .  .    ...  ...   ...   ...   ...

Left Channel Last time
---------------------------------|
---------------------------------|
---------------------------------|
---------------------------------|
11----------10-----9-----------5-|
---10-10-10----999---888-6tr7--3-|
   .  .  .     ...   ...

Right Channel Last time
--------------------------|
--------------------------|
--------------------------|
9-----8-----7-------------|
--888---777---666-------5-|
------------------6tr7--3-|
  ...   ...   ...




Rhythm Figure 3
(2:00)
Right Channel
|---------------------------------------------------------------------|
|---------------------------------------------------------------------|
|---------------------------------------------------------------------|
|---------------5/8--8\5--5/8-------------------------5/8--8/11--11\8-|
|---6-5---6-5------------------------5----6-5---6-5-------------------|
|-0-4-3-0-4-3-0-3/6--6\3--3/6--6tr7--3--0-4-3-0-4-3-0-3/6--6/9----9\6-|
  . . . . . .                           . . . . . .

Left Channel
|------------------------------------------------------------------------|
|------------------------------------------------------------------------|
|------------------------------------------------------------------------|
|------------------------------------------------------------------------|
|------------------------------------5-----------------------------------|
|------------------------------6tr7--3-----------------------------------|


|----------------------------------------------------------------------------------------|
|----------------------------------------------------------------------------------------|
|----------------------------------------------------------------------------------------|
|--------------------------------------------------------------------5/11----------------|
|------5----6-5---8-5---6-5---8-5---6-5---8-5--------5---6-5---8-5-----------------------|
|6tr7--3--0-4-3-0-6-3-0-4-3-0-6-3-0-4-3-0-6-3-0-6tr7-3-0-4-3-0-6-3-0-3/9--8tr9-7tr8-6tr7-|
          . . . . . . . . . . . . . . . . . . .        . . . . . . .


-------------------------------------------------------------------------|
-------------------------------------------------------------------------|
-------------------------------------------------------------------------|
-----------------8\5-5--4/5-5--8\5-5--8\5-5-------------------------5/11-|
5----6-5---8-5-------------------------------------5----6-5---8-5--------|
3--0-4-3-0-6-3-0-6\3-3--2/3-3--6\3-3--6\3-3--6tr7--3--0-4-3-0-6-3-0-3/9--|
   . . . . . . .                                      . . . . . . .


Right Chnl.
--------------------------------------------|
--------------------------------------------|
--------------------------------------------|
--------------------------------------------|
-----11-11-11-11-11-11-10-10-10-10-10-10-10-|
8tr9----------------------------------------|


Left Chnl.
-------------------|
-------------------|
-------------------|
-------------------|
-----888888-777777-|
8tr9---------------|


----------------------------------------------------------------------------------------|
----------------------------------------------------------------------------------------|
----------------------------------------------------------------------------------------|
--------------------------------------------------------------------5/11----------------|
------5----6-5---8-5---6-5---8-5---6-5---8-5--------5---6-5---8-5-----------------------|
6tr7--3--0-4-3-0-6-3-0-4-3-0-6-3-0-4-3-0-6-3-0-6tr7-3-0-4-3-0-6-3-0-3/9--8tr9-7tr8-6tr7-|
         . . . . . . . . . . . . . . . . . . .        . . . . . . .


-------------------------------------------------------------------------|
-------------------------------------------------------------------------|
-------------------------------------------------------------------------|
------------------8\5-5--5\4-4--4/5-5--5/8-8------------------------5/11-|
5----6-5---8-5-------------------------------------5----6-5---8-5--------|
3--0-4-3-0-6-3-0--6\3-3--3\2-2--2/3-3--3/6-6-6tr7--3--0-4-3-0-6-3-0-3/9--|
   . . . . . . .                                      . . . . . . .


Right Chnl.
--------------------------------------------|
--------------------------------------------|
--------------------------------------------|
--------------------------------------------|
-----11-11-11-11-11-11-10-10-10-10-10-10-10-|
8tr9----------------------------------------|


Left Chnl.
-------------------|
-------------------|
-------------------|
-------------------|
-----888888-777777-|
8tr9---------------|


-----------------------------------------------------------------------|
-----------------------------------------------------------------------|
-----------------------------------------------------------------------|
------8/11---------8\5-5--------8/11---------8/5-5--------8/11---------|
-----------------------------------------------------------------------|
6tr7--6/9--0-99660-6\3-3--6tr7--6/9--0-99660-6/3-3--6tr7--6/9--0-99660-|
           . .....                   . .....                   . .....


---------------------------------------- ---------------------------------------|
---------------------------------------- ---------------------------------------|
---------------------------------------- ---------------------------------------|
8/5-5--------8/11---------8/5-5--------- ---------------------------------------|
--------------------------------------5- ---6-5---8-5---6-5---8-5---6-5---8-5---|
6/3-3--6tr7--6/9--0-99660-6/3-3-6tr7--3- -0-4-3-0-6-3-0-4-3-0-6-3-0-4-3-0-6-3-0-|
                  . .....                 . . . . . . . . . . . . . . . . . . .


----------------------------------------------------------------------------------------|
----------------------------------------------------------------------------------------|
----------------------------------------------------------------------------------------|
-----------------------5/11----------------------------------8\5-5--4/5-5--8\5-5--8\5-5-|
------5----6-5---8-5------------------------5----6-5---8-5------------------------------|
6tr7--3--0-4-3-0-6-3-0-3/9--8tr9-7tr8-6tr7--3--0-4-3-0-6-3-0-6\3-3--2/3-3--6\3-3--6\3-3-|
         . . . . . . .                         . . . . . . .


----------------------------|
----------------------------|
----------------------------|
-----------------------5/11-|
------5----6-5---8-5--------|
6tr7--3--0-4-3-0-6-3-0-3/9--|
         . . . . . . .


Right Chnl.
-----------------------------------------|
-----------------------------------------|
-----------------------------------------|
-----------------------------------------|
-----11-11-11-11-11-11-10-10-10-10-10-10-|
8tr9-------------------------------------|


Left Chnl.
-------------------|
-------------------|
-------------------|
-------------------|
-----888888-777777-|
8tr9---------------|


-----------------------------------------------------------------------|
-----------------------------------------------------------------------|
-----------------------------------------------------------------------|
------8/11---------8\5-5--------8/11---------8/5-5--------8/11---------|
-----------------------------------------------------------------------|
6tr7--6/9--0-99660-6\3-3--6tr7--6/9--0-99660-6/3-3--6tr7--6/9--0-99660-|
           . .....                   . .....                   . .....


---------------------------------------------------------------------|
---------------------------------------------------------------------|
---------------------------------------------------------------------|
8\5-5--------8/11----------8/5-5--------8/11----------8/12------8/11-|
---------------------------------------------------------------------|
6\3-3--6tr7--6/9--0-99660--6/3-3--6tr7--6/9--0-99660--6/10-6tr7-6/9--|
                  . .....                    . .....


------------------------------------------------------------------|
------------------------------------------------------------------|
------------------------------------------------------------------|
---------8/12--------8/11----------8/12--------8/11----------8/11-|
------------------------------------------------------------------|
0-99660--6/10--6tr7--6/9--0-99660--6/10--6tr7--6/9--0-99660--6/9--|
. .....                   . .....                   . .....




Rhythm Figure 2 Again
Intro Riff Variation again




End With




Right Chnl.
|-------------------------------------------------------------------------------|
|-------------------------------------------------------------------------------|
|-------------------------------------------------------------------------------|
|-------------------------------------------9-----8-----7-----6-----5-----4-----|
|11----------10-----9-----8-----7-----6-------888---777---666---555---444---333-|
|---10-10-10----999---888---777---666---555-------------------------------------|
    .  .  .     ...   ...   ...   ...   ...   ...   ...   ...   ...   ...   ...


---------------------------------------|
---------------------------------------|
---------------------------------------|
12----------11----------10-------------|
---11-11-11----10-10-10----999-------5-|
-------------------------------6tr7--3-|
   .  .  .     .  .  .     ...


Left Chnl.
|--------------------------------------------------------------------------------------|
|--------------------------------------------------------------------------------------|
|--------------------------------------------------------------------------------------|
|--------------------------------------------------------------------------------------|
|11----------10-----9-----8-----7-----6-----11----------10-----9-----8-----7-----6-----|
|---10-10-10----999---888---777---666---555----10-10-10----999---888---777---666---555-|
    .  .  .     ...   ...   ...   ...   ...    .  .  .     ...   ...   ...   ...   ...


---------------------------------|
---------------------------------|
---------------------------------|
---------------------------------|
11----------10-----9-----------5-|
---10-10-10----999---888-6tr7--3-|
   .  .  .     ...   ...

End.

            
            
Suggest correction
Creating personal tab
Creating personal tab
You can edit any tab online and save it as your Personal.

You can edit, replace or remove any tab part or add personal notes – all changes will be seen only by you.

Personal tabs can be accessed anytime from any device, even offline.
Learn more »
Give kudos to tab author, rate the tab!
1 2 3 4 5
comments
print report bad tab
guest
You may want to rate the tab now too:
select rating
Wanna post a correction for this tab? Suggest correction