Oops, an error
Loading. Please wait.

Priests Of Sodom tab

version 2
version 2

Whole song

Interactive

826 views 1 this week
5 commentsread comments
1 2 3 4 5
2 more votes to show rating
add to favorites
×
Save as Personal and add changes to this tab that will be seen only by you. Learn more ›
×
You can save this tab as Personal to edit and correct it or add notes. All changes will be seen only by you. Learn more »
launch autoscroll
font size
0
reset
how to read this tab
guitar tuner
edit
Autoscroll
slow
fast
+/-
esc
set tempo
stop
Author
Difficulty
Priests of Sodom - Cannibal Corpse

Tuning (low to high) A# D# G# C# F A#

Guitar 1 - Pat O'Brien
Guitar 2 - Rob Barrett

I don't know the solo again, sorry guys. And I suggest using a 7 seven string
guitar for this song since the tuning is so low but anyway.

Riff 1 - Both Gtrs.
A# ---------------------------------------------------------||
F  ---------------------------------------------------------||
C# ---------------------------------------------------------||
G# -5---8---7---4-------------------------------------5---8-||
D# -x---x---x---x-3-3-3-3-3-3-3-3-3-3-3-3-9-6-0-7-6-0-x---x-||
A# -3---6---5---2-------------------------------------3---6-||
                  . . . . . . . . . . . . . . . . . .

Chorus - Both Gtrs.
A# -------------------------------------------------------------------------|
F  -------------------------------------------------------------------------|
C# ------------------------------------------------------6------------------|
G# -----5------3------------------------------------8--5-x--------------6-6-|
D# -----x------x----4-4-7-7-7-7-8-8-8-8-5-5-5-5-----x--x-4--8-8-7-7-7-7-----|
A# -0-0-3--0-0-1--0-----------------------------0-0-6--3--------------------|
    . .    . .    .                             . .

A# ----------------------------------------------------------------||
F  ----------------------------------------------------------------||
C# --------------------------------------------------------7-------||
G# -----------5------4-------------------------------------x-------||
D# -5-5-5-----x------x---4-4-7-7-7-7-8-8-8-8-5-5-5-5-------5-------||
A# -------0-0-3--0-0-1-0-----------------------------0-0-0-----0-0-||
          . .    . .   .                             . . .     . .

Verse - Both Gtrs.
A# ---------------------------------------------------------------||
F  ---------------------------------------------------------------||
C# ---------------------------------------------------------------||
G# -------------------------------5---------------------5---------||
D# -----------4-------------------x---------------------x-2-2-2-2-||
A# -1-4-3-1-3---0-4-4-1-0-7-7-4-0-3-0-0-4-4-1-0-7-7-4-0-3-0-0-0-0-||
    . . . . .   .       .       .   . .       .       .   . . . .

Break 1 - Both Gtrs.
A# ------||
F  ------||
C# ------||
G# -5--8-||
D# -x--x-||
A# -3--6-||

Break 2 - Both Gtrs.
A# ------||
F  ------||
C# ------||
G# -7--4-||
D# -7--4-||
A# -5--2-||

Riff 2 - Gtr 1
A# ---------------------------||
F  ---------------------------||
C# ---------------------------||
G# ---------------------------||
D# -8-5-0-7-4-0-5-2-0-------5-||
A# -------------------6-3-0-3-||
    . . . . . . . . . . . .

Riff 2 - Gtr 2
A# -----------------------------------||
F  -----------------------------------||
C# -----------------------------------||
G# -----------------------------------||
D# -8-5-0-7-4-0-5-2-0-------5-5-5-5-5-||
A# -------------------6-3-0-3-3-3-3-3-||
    . . . . . . . . . . . .   . . . .

Riff 3 - Both Gtrs.
A# ---------------------------------------------------------||
F  ---------------------------------------------------------||
C# ---------------------------------------------------------||
G# ---------------------------------------------------------||
D# -8-5-0-7-4-0-5-2-0---------------------------------------||
A# -------------------6-3-3-3-3-3-3-6-3-0-7-4-0-6-3-0-7-4-0-||
    . . . . . . . . . . . . . . . . . . . . . . . . . . . .

Riff 4 - Both Gtrs.
A# ---------------------------------------||
F  ---------------------------------------||
C# ---------------------------------------||
G# ---------------------------------------||
D# -8-5-0-7-4-0-5-2-----------------------||
A# -----------------6-3-0-7-4-0-6-3-0-7-4-||
    . . . . . . . . . . . . . . . . . . .

Riff 5
A# ------------------------------------------------------||
F  ------------------------------------------------------||
C# ------------------------------------------------------||
G# ------------------------------------------------------||
D# ------------------------------------------------------||
A# -7p6p4-7p6p4-7p6p4-9p7p6-7p6p4-7p6p4-7p6p4-10p9p7-0-0-||
    . . . . . . . . . . . . . . . . . . . . . .  . . . .

Riff 6 - Both Gtrs.
A# ----------------------------------------------------------||
F  ----------------------------------------------------------||
C# ----------------------------------------------------------||
G# ----------------------------------------------------------||
D# ----------------------------------------------------------||
A# -7p6p4-0-0-7p6p4-0-6h7h9-0-7p6p4-0-0-7p6p4-0-7h9h10-0-0-0-||
    . . . . . . . . . . . . . . . . . . . . . . . . .  . . .

Riff 7 - Both Gtrs.
A# --------------------------------------||
F  --------------------------------------||
C# ----------------------------6--9--8-5-||
G# -5---8---7---4--8--11-10-7--x--x--x-x-||
D# -x---x---x---x--x--x--x--x--4--7--6-3-||
A# -3---6---5---2--6--9--8--5------------||

Outro - Both Gtrs.
A# ---||
F  ---||
C# ---||
G# -11||
D# -x-||
A# -9-||

            
            
Suggest correction
Creating personal tab
Creating personal tab
You can edit any tab online and save it as your Personal.

You can edit, replace or remove any tab part or add personal notes – all changes will be seen only by you.

Personal tabs can be accessed anytime from any device, even offline.
Learn more »
Give kudos to tab author, rate the tab!
1 2 3 4 5
comments
print report bad tab
5 comments total. Showing first comments.
0 reply
thirdeye150 1,004 Apr 22, 2013 06:47 AM

Priests of Sodom

Cannibal Ñorpse

www.zlagoda-stig85.narod.ru
Q. Q. Q. Q.
E||-------------------------------------|----------------|
B||-------------------------------------|----------------|
G||-------------------------------------|----------------|
D||--5---------------------------8------|--7------4------|
A||--x---------------------------x------|--x------x------|
E||--3---------------------------6------|--5------2------|

PM PM PM PM PM PM PM PM PM PM PM PM PM PM PM PM PM PM
S S S S S S S S S S S S E E E E E E Q. Q.
--------------------------------------|--------------------|----------------|
--------------------------------------|--------------------|----------------|
--------------------------------------|--------------------|----------------|
--------------------------------------|--------------------|--5------8------|
--3--3--3--3--3--3--3--3--3--3--3--3--|--0--9--6--7--6--0--|--x------x------|
--------------------------------------|--------------------|--3------6------|

PM PM PM PM
E E Q. E Q E S S S S S S S S S S S S S S
|-------------------------|---------------------------------|
|-------------------------|---------------------------------|
|*------------------------|---------------------------------|
|*--------5b---------3----|---------------------------------|
|---2--2--x-------2--x----|-----4-4-7-7-7-7-8-8-8-8-5-5-5-5-|
|---0--0--3b------0--1----|--0------------------------------|

PM PM PM PM
E E Q. Q E Q E S S S S S S S S S S
------------------------|------------------------------|
------------------------|------------------------------|
------------------------|--6---------------------------|
--------8b------5-------|--x-----------------6-6-------|
--2--2--x-------x----2--|--4-------8-8-7-7-7-----5-5-5-|
--0--0--6b------3----0--|-------0----------------------|

PM PM PM PM
E E Q. E Q E S S S S S S S S S S S S S S
------------------------|---------------------------------|
------------------------|---------------------------------|
------------------------|---------------------------------|
--------5b---------3----|---------------------------------|
--2--2--x-------2--x----|-----4-4-7-7-7-7-8-8-8-8-5-5-5-5-|
--0--0--3b------0--1----|--0------------------------------|

PM PM PM PM
E E E Q. E E Q. Q. Q. Q.
--------------------------||----------------|----------------|
--------------------------||----------------|----------------|
-----------7b------------*||----------------|----------------|
-----------x-------------*||--5------8------|--7------4------|
--0--2--2--5b------2--2---||--x------x------|--x------x------|
-----0--0----------0--0---||--3------6------|--5------2------|

PM PM PM PM PM PM PM PM PM PM PM PM PM PM PM PM PM PM
S S S S S S S S S S S S E E E E E E Q. Q.
--------------------------------------|--------------------|----------------|
--------------------------------------|--------------------|----------------|
--------------------------------------|--------------------|----------------|
--------------------------------------|--------------------|--5------8------|
--3--3--3--3--3--3--3--3--3--3--3--3--|--0--9--6--7--6--0--|--x------x------|
--------------------------------------|--------------------|--3------6------|

PM PM PM PM PM PM PM PM PM PM PM PM PM PM PM
E E E E E E E E S S E E S S E E Q
|---------------------------|--------------------------------|
|---------------------------|--------------------------------|
|*--------------------------|--------------------------------|
|*--------------------------|--------------------------5b----|
|------------------4--------|--------------------------x-----|
|---1--4--3--1--3-----1--3--|--4h-4p-1--0--7h-7p-4--0--3b----|

PM PM PM PM PM PM PM PM PM PM PM PM PM PM PM PM
E E S S E E S S E E Q E E E E E E
--------------------------------|--------------------------|
--------------------------------|--------------------------|
--------------------------------|--------------------------|
--------------------------------|--5b----------------------|
--------------------------------|--x-----------------------|
--0--0--4h-4p-1--0--7h-7p-4--0--|--3b----0--0--0--0--0--0--|

PM PM PM PM PM PM PM PM PM PM PM PM PM PM PM
E E E E E E E E S S E E S S E E Q
--------------------------|--------------------------------|
--------------------------|-------

0 reply
deathmetallife5 635 Apr 22, 2013 05:11 PM

What you sent was pretty much what I wrote on this tab so there was no need to send it.

0 reply
Morbid Corpse 395 Apr 27, 2013 05:47 PM

Domnic Patria on youtube did a guitar cover of this song. He got it straight from the official tab. Your playing every riff wrong except riff 7.

guest
You may want to rate the tab now too:
select rating
Wanna post a correction for this tab? Suggest correction