Oops, an error
Loading. Please wait.

Dub No 1 bass

by Capdown
341 views 1 this week
1 commentread comment
1 2 3 4 5
1 last vote to show rating
add to favorites
×
Save as Personal and add changes to this tab that will be seen only by you. Learn more ›
×
You can save this tab as Personal to edit and correct it or add notes. All changes will be seen only by you. Learn more »
launch autoscroll
font size
0
reset
guitar tuner
edit
Autoscroll
slow
fast
+/-
esc
set tempo
stop
Author
Capdown - Dub No 1
Album: Civil Disobedients
sfc


play this all the way through
G-------------------------------|---------------------|
D-------------------------------|-------------6---6---|
A----------------------------4~-|-4-4-4-4~--4---4---3-|
E-1-1--1-1--1-1--1-1--1-1--4----|---------------------|


with some variations

G-------------------------------|--------------------|
D-------------------------------|--------------------|
A----------------------------4~-|-4-4--3~--3-4-3-4-3-|
E-1-1--1-1--1-1--1-1--1-1--4----|--------------------|

or

G-------------------------------|--------------------|
D-------------------------------|--------------------|
A----------------------------4~-|-4-4--3~--3-6-3-4-3-|
E-1-1--1-1--1-1--1-1--1-1--4----|--------------------|

simple as.

            
            
Suggest correction
Creating personal tab
Creating personal tab
You can edit any tab online and save it as your Personal.

You can edit, replace or remove any tab part or add personal notes – all changes will be seen only by you.

Personal tabs can be accessed anytime from any device, even offline.
Learn more »
Give kudos to tab author, rate the tab!
1 2 3 4 5
comments
print report bad tab
1 comment total.
0 reply
Anton-R 10 Feb 11, 2013 01:04 PM

After the first part the first time the the start of the bar moves up an octave i'm sure
G----------------------------7~-|---------------------|
D-3-3--3-3--3-3--3-3--3-3--7----|-------------6---6---|
A-------------------------------|-4-4-4-4~--4---4---3-|
E-------------------------------|---------------------|

guest
You may want to rate the tab now too:
select rating
Wanna post a correction for this tab? Suggest correction