Oops, an error
Loading. Please wait.

Basils Kite tab

7,924 views 21 this week
no commentswrite comment
1 2 3 4 5
x 4
add to favorites
×
Save as Personal and add changes to this tab that will be seen only by you. Learn more ›
×
You can save this tab as Personal to edit and correct it or add notes. All changes will be seen only by you. Learn more »
launch autoscroll
font size
0
reset
how to read this tab
guitar tuner
edit
Autoscroll
slow
fast
+/-
esc
set tempo
stop
ok, i reckon that i am the second person to ever tab a Cap'n Jazz song, the first 
being dittohead123, but i think this is a pretty accurate tab of Basil's Kite i hope you enjoy 
:D

by the way, Cap'n Jazz kick arse and this song is in my opinion one of their best 
and lyrically

tabbed by: atdi4eva

standard tuning (Eadgbe)

(rhythm is interpreted freely)

(NOTE!!: at the start of the song there is an extra bar almost like an annicrucis, so 
more like x9 rather than x8)

intro x 8 with just guitar by itself

e[-----------------]
B[--9-9-9-9-9-9-9-9]
G[--9-9-9-9-9-9-9-9]
D[--9-9-9-9-9-9-9-9]
A[--7-7-7-7-7-7-7-7]
E[-----------------]

then, the drums kick in for the verse

verse x 8

(when i fly...)
e[------------------------------------------------------------------]
B[--9-9-----9-9-----9-9-9-9-9-9-9-9--9-9-9-9-9-9-9-9-9-9-9-9-9-9-9-9]
G[--9-9-9-9-9-9-9-9-9-9-9-9-9-9-9-9--9-9-9-9-9-9-9-9-9-9-9-9-9-9-9-9]
D[------9-9-----9-9-------------------------------------------------]
A[--7-7-7-7-7-7-7-7-7-7-7-7-7-7-7-7--6-6-6-6-6-6-6-6-6-6-6-6-6-6-6-6]
E[------------------------------------------------------------------] x2

bridge

e[--|-----------------]
B[--|----9--------9---]
G[5-|-----9---------9-]
D[5-|-----------------]
A[7-|---------7------7]
E[--|-----------------]

e[---------------------------------------]
B[---------------------------------------]
G[----------------14-14-14-14-14-14-14-14]
D[7-7-7-7-7-7-7-7------------------------]
A[0-0-0-0-0-0-0-0-12-12-12-12-12-12-12-12]
E[--------------------------------------]

Chorus

e[-------------------------------------------]
B[------------------------12-12-12---12-12-12]
G[--9p8--------------------------------------]
D[------9-9\11-9/7\9-9-7---------------------]
A[-------------------------------------------]
E[-------------------------------------------] x 2

then straight from the chorus into...

post-chorus
e[----------]
B[--9--9--9-]
G[---9---9-9]
D[----------]
A[----------]
E[----------]

Then it goes back to the bridge, which leads into the chorus for another two then after that

...the build up...in the meantime play the post-chorus again but very soft, he sings a 
words here it goes for about 8 or 6 im not sure. but still then the trumpet comes in 
keep playing the post chorus, but keep building it up and he yells!!!

THEN THE OUTRO!

(i cant fly if he can't fly...)
e[-----------------------------------------------------------------]
B[--9-9-9-9-9-9-9-9-9-9-9-9-9-9-9-9-9-9-9-9-9-9-9-9-9-9-9-9-9-9-9-9]
G[--9-9-9-9-9-9-9-9-9-9-9-9-9-9-9-9-9-9-9-9-9-9-9-9-9-9-9-9-9-9-9-9]
D[--9-9-9-9-9-9-9-9-9-9-9-9-9-9-9-9--------------------------------]
A[--7-7-7-7-7-7-7-7-7-7-7-7-7-7-7-7-6-6-6-6-6-6-6-6-6-6-6-6-6-6-6-6]
E[-----------------------------------------------------------------]

(i cant flyyyyyyyyyyyyyy.....)

end
e[--]
B[--]
G[9-]
D[9-]
A[7-]
E[--]

so there you go! the second ever Cap'n Jazz song tabbed, please enjoy

            
            
Suggest correction
Creating personal tab
Creating personal tab
You can edit any tab online and save it as your Personal.

You can edit, replace or remove any tab part or add personal notes – all changes will be seen only by you.

Personal tabs can be accessed anytime from any device, even offline.
Learn more »
comments
print report bad tab
guest
You may want to rate the tab now too:
select rating
Wanna post a correction for this tab? Suggest correction