Oops, an error
Loading. Please wait.

Forget Who We Are bass

497 views 1 this week
2 commentsread comments
1 2 3 4 5
2 more votes to show rating
add to favorites
×
Save as Personal and add changes to this tab that will be seen only by you. Learn more ›
×
You can save this tab as Personal to edit and correct it or add notes. All changes will be seen only by you. Learn more »
launch autoscroll
font size
0
reset
guitar tuner
edit
Autoscroll
slow
fast
+/-
esc
set tempo
stop
Author
-------------------------------------------------------------------------------
                          FORGET WHO WE ARE - Cap'n Jazz
-------------------------------------------------------------------------------
Tabbed by: Joe Owens
E-mail: joeowens994@hotmail.com
Video: http://www.youtube.com/watch?v=2zMwncJsVcY

Pretty simple song on the bass, just listen to it and you'll pick it up easy.

Tuning: Standard (EADG)

Intro:
                  x8
G|-----------------|
D|-----------------|
A|-3-3-3-3-3-3-3-3-|
E|-----------------|
Then lyrics come in, "I can't stand..."
                 x16
G|-----------------|
D|-----------------|
A|-3-3-3-3-3-3-3-3-|
E|-----------------|


Verse: "swimming eyes..."
                 x16
G|-----------------|
D|-----------------|
A|-3-3-3-3-3-3-3-3-|
E|-----------------|

G|-----------------|-----------------|-----------------|----------------|
D|-2-2-2-2-2-2-2-2-|-----------------|-----------------|----------------|
A|-----------------|-----------------|-3-3-3-3-3-3-3-3-|3-3-3-3-3-3-3-3-|
E|-----------------|-3-3-3-3-3-3-3-3-|-----------------|----------------|

G|-----------------|-----------------|-----------------|
D|-2-2-2-2-2-2-2-2-|-----------------|-----------------|
A|-----------------|-----------------|-3-3-3-3-3-3-3-3-|
E|-----------------|-3-3-3-3-3-3-3-3-|-----------------|

Then repeat the entire verse for the next verse, "missed kisses blown..."


Bridge: 
Goes back to this
                 x16
G|-----------------|
D|-----------------|
A|-3-3-3-3-3-3-3-3-|
E|-----------------|


Finish: "trying so hard to forget who we are..."
G|-----------------|-----------------|-----------------|----------------|
D|-2-2-2-2-2-2-2-2-|-----------------|-----------------|----------------|
A|-----------------|-----------------|-3-3-3-3-3-3-3-3-|3-3-3-3-3-3-3-3-|
E|-----------------|-3-3-3-3-3-3-3-3-|-----------------|----------------|

G|-----------------|-----------------|-----------------|
D|-2-2-2-2-2-2-2-2-|-----------------|-----------------|
A|-----------------|-----------------|-3---------------|
E|-----------------|-3-3-3-3-3-3-3-3-|-----------------|


That's it! There's a cover of this song on Youtube by a band called 
Division, with Rise Against's Tim McIlrath, that also sounds similar. The 
bass is a lot louder in that song which makes it easier to play to. 
Otherwise, jam to the original and you should be right.

            
            
Suggest correction
Creating personal tab
Creating personal tab
You can edit any tab online and save it as your Personal.

You can edit, replace or remove any tab part or add personal notes – all changes will be seen only by you.

Personal tabs can be accessed anytime from any device, even offline.
Learn more »
Give kudos to tab author, rate the tab!
1 2 3 4 5
comments
print report bad tab
2 comments total.
0 reply
Kleekl 56 May 02, 2013 03:13 PM

thanks man! anything cap'n jazz related is appreciated!

0 reply
joeowens994 216 May 02, 2013 03:57 PM

All good buddy! It's a shame there's so very little of their stuff on here but I've figured out a bit of their stuff by ear.

guest
You may want to rate the tab now too:
select rating
Wanna post a correction for this tab? Suggest correction