Oops, an error
Loading. Please wait.

Destroyed By Hippie Powers tab

version 2
version 2

Whole song

  • Destroyed By Hippie Powers from Teens of Denial.
583 views 36 this week
no commentswrite comment
1 2 3 4 5
x 4
add to favorites
×
Save as Personal and add changes to this tab that will be seen only by you. Learn more ›
×
You can save this tab as Personal to edit and correct it or add notes. All changes will be seen only by you. Learn more »
launch autoscroll
font size
0
reset
how to read this tab
guitar tuner
edit
Autoscroll
slow
fast
+/-
esc
set tempo
stop
About this tab version
Destroyed By Hippie Powers from Teens of Denial. Was this info helpful? Yes No
[Intro]

Guitar 1

e|-0-0-0-0-|-0-0-0-0-|-4-4-4-4-|-5-5-5-5--------------------------------------------|
B|-0-0-0-0-|-0-0-0-0-|-5-5-5-5-|-5-5-5-5--------------------------------------------|
G|-1-1-1-1-|-1-1-1-1-|-6-6-6-6-|-6-6-6-6--------------------------------------------|
D|-2-2-2-2-|-2-2-2-2-|-6-6-6-6-|-7-7-7-7--------------------------------------------|
A|-2-2-2-2-|-2-2-2-2-|-4-4-4-4-|-7-7-7-7--------------------------------------------|
E|-0-0-0-0-|-0-0-0-0-|----=----|-5-5-5-5--------------------------------------------|

Guitar 2 (0:13)
e|---------------------------------------------------------------------------|
B|-10~-10~-10~-10~-10~-10~-10~-10~-10~---------9/0---------------------------|
G|---------------------------------------------------------------------------|
D|---------------------------------------------------------------------------|
A|---------------------------------------------------------------------------|
E|---------------------------------------------------------------------------|

Guitar 1
   PM---|  PM---|    PM---|   PM---|     PM---------------------|
e|---------------------------------------4-4-4-4-4-4-4-4---------5-5-5-5-----|
B|-------7*-------7*-------7*-------7*---5-5-5-5-5-5-5-5---------5-5-5-5-----|
G|---------------------------------------6-6-6-6-6-6-6-6-9-9-9-9-6-6-6-6-----|
D|---------------------------------------6-6-6-6-6-6-6-6-9-9-9-9-7-7-7-7-----|
A|---------------------------------------4-4-4-4-4-4-4-4-7-7-7-7-7-7-7-7-----|
E|-0-0-0----0-0-0----0-0-0----0-0-0------------------------------5-5-5-5-----|

Guitar 2
e|---------------------------------------------------------------------------|
B|---------------------------------------------------------------------------|
G|------------------------------6---6----6-6-6-6-6-6p4-----------------------|
D|------------------------------x---x----------------6-6-6-6-6-6p4-----------|
A|------------------------------4---4----------------------------------------|
E|---------------------------------------------------------------------------|

[Verse 1]

e|---------------------------------------------------------------------------|
B|---------------------------------------------------------------------------|
G|-----11-11----11-11----11-11---11-11----11-11----11-11-----11-11----11-11--|
D|-----11-11----11-11----11-11---11-11----11-11----11-11-----11-11----11-11--|
A|-----9--9-----9--9-----9--9----9--9-----9--9-----9--9--0-0-9--9-x-x-9--9---|
E|-0-0------0-0------0-0------0-0------9-9-----9-9---------------------------|

e|---------------------------------------------------------------------------|
B|---------------------------------------------------------------------------|
G|-----11-11----11-11----11-11---11-11----11-11----11-11-----11-11-9-9/11-11-|
D|-----11-11----11-11----11-11---11-11----11-11----11-11-----11-11-9-9/11-11-|
A|-----9--9-----9--9-----9--9----9--9-----9--9-----9--9--0-0-9--9--7-7/9--9--|
E|-0-0------0-0------0-0------0-0------9-9-----9-9---------------------------|

e|---------------------------------------------------------------------------|
B|---------------------------------------------------------------------------|
G|-----11-11----11-11----11-11---11-11----11-11----11-11-----11-11-9-9/11-11-|
D|-----11-11----11-11----11-11---11-11----11-11----11-11-----11-11-9-9/11-11-|
A|-----9--9-----9--9-----9--9----9--9-----9--9-----9--9--0-0-9--9--7-7/9--9--|
E|-0-0------0-0------0-0------0-0------9-9-----9-9---------------------------|

e|---------------------------------------------------------------------------|
B|---------------------------------------------------------------------------|
G|-----11-11----11-11----11-11---11-11----11-11----11-11-----11-11-9-9/11-11-|
D|-----11-11----11-11----11-11---11-11----11-11----11-11-----11-11-9-9/11-11-|
A|-----9--9-----9--9-----9--9----9--9-----9--9-----9--9--0-0-9--9--7-7/9--9--|
E|-0-0------0-0------0-0------0-0------9-9-----9-9---------------------------|

[Pre-Chorus]

C# F#m E A

C# F#m D A


[Chorus]

e|-------------------------------------9--9--9--9--9--9--9--9----------------|
B|-------------------------------------9--9--9--9--9--9--9--9----------------|
G|-----11-11----11-11----11-11---11-11-9--9--9--9--9--9--9--9----------------|
D|-----11-11----11-11----11-11---11-11-11-11-11-11-11-11-11-11---------------|
A|-----9--9-----9--9-----9--9----9--9--11-11-11-11-11-11-11-11---------------|
E|-0-0------0-0------0-0------0-0------9--9--9--9--9--9--9--9----------------|

e|-5-5-5-5-5-5-5-5-----------------------------------------------------------|
B|-5-5-5-5-5-5-5-5-----------------------------------------------------------|
G|-6-6-6-6-6-6-6-6-----------------------------------------------------------|
D|-7-7-7-7-7-7-7-7-----------------------------------------------------------|
A|-7-7-7-7-7-7-7-7-----------------------------------------------------------|
E|-5-5-5-5-5-5-5-5-----------------------------------------------------------|

[Post-Chorus]

e|-------------------0-------------------------------------------------------|
B|-------------------0-------------------------------------------------------|
G|-------------------1-------------------------------------------------------|
D|-7-7-7-10-10-9-9---2-------------------------------------------------------|
A|-7-7-7-10-10-9-9---2-------------------------------------------------------|
E|-5-5-5-8--8--7-7-0-0-------------------------------------------------------|

e|-----------------------------0---------------------------------------------|
B|-----------------------------0---------------------------------------------|
G|-----------------------------1---------------------------------------------|
D|-11-----14--13-7-----13-11---2-----11-11-11-11-11---11---------------------|
A|-11------------7-------------2--------------------11--11-------------------|
E|-9-------------5-----------0-0---------------------------------------------|

e|---------------------------------------------------------------------------|
B|---------------------------------------------------------------------------|
G|---------------------------------------------------------------------------|
D|-11-----14--13-7-----13-11-------------------------------------------------|
A|-11------------7-----------------------------------------------------------|
E|-9-------------5-----------0-----------------------------------------------|

[Verse 2]
   PM-------------|
e|---------------------------------------------------------------------------|
B|---------------------------------------------------------------------------|
G|---------------------------------------------------------------------------|
D|-2-2-2-2-2-2-2-2-2-2-2-2-2-2-2-2-11-11-11-11-11-11-11-11-------------------|
A|-2-2-2-2-2-2-2-2-2-2-2-2-2-2-2-2-11-11-11-11-11-11-11-11-4-4-4-4-4-4-4-4---|
E|-0-0-0-0-0-0-0-0-0-0-0-0-0-0-0-0-9--9--9--9--9--9--9--9--5-5-5-5-5-5-5-5---|

e|---------------------------------------------------------------------------|
B|---------------------------------------------------------------------------|
G|-----11-11----11-11----11-11---11-11----11-11----11-11-----11\9/11\9/11\9--|
D|-----11-11----11-11----11-11---11-11----11-11----11-11-----11\9/11\9/11\9--|
A|-----9--9-----9--9-----9--9----9--9-----9--9-----9--9--0-0-9-\7/9-\7/9-\7--|
E|-0-0------0-0------0-0------0-0------9-9-----9-9---------------------------|

[Pre-Chorus]

C# F#m E A

C# F#m D A

[Chorus]

e|-------------------------------------9--9--9--9--9--9--9--9----------------|
B|-------------------------------------9--9--9--9--9--9--9--9----------------|
G|-----11-11----11-11----11-11---11-11-9--9--9--9--9--9--9--9----------------|
D|-----11-11----11-11----11-11---11-11-11-11-11-11-11-11-11-11---------------|
A|-----9--9-----9--9-----9--9----9--9--11-11-11-11-11-11-11-11---------------|
E|-0-0------0-0------0-0------0-0------9--9--9--9--9--9--9--9----------------|

e|-5-5-5-5-5-5-5-5-----------------------------------------------------------|
B|-5-5-5-5-5-5-5-5-----------------------------------------------------------|
G|-6-6-6-6-6-6-6-6-----------------------------------------------------------|
D|-7-7-7-7-7-7-7-7-----------------------------------------------------------|
A|-7-7-7-7-7-7-7-7-----------------------------------------------------------|
E|-5-5-5-5-5-5-5-5-----------------------------------------------------------|

Guitar 2
e|---------------------------------------------------------------------------|
B|---------------------------------------------------------------------------|
G|---------------------------------------6-6-6-6-6-6p4-----------------------|
D|----------------------------------------------------6-6-6-6-6-6p4----------|
A|---------------------------------------------------------------------------|
E|---------------------------------------------------------------------------|

e|---------------------------------------------------------------------------|
B|---------------------------------------9-9-9-9-9-9p7-----------------------|
G|---------------------------------------------------------------------------|
D|---------------------------------------------------------------------------|
A|---------------------------------------------------------------------------|
E|---------------------------------------------------------------------------|

[Post-Chorus]

e|-------------------0-------------------------------------------------------|
B|-------------------0-------------------------------------------------------|
G|-------------------1-------------------------------------------------------|
D|-7-7-7-10-10-9-9---2-------------------------------------------------------|
A|-7-7-7-10-10-9-9---2-------------------------------------------------------|
E|-5-5-5-8--8--7-7-0-0-------------------------------------------------------|

[Outro]

e|---------------------------------------------------------------------------|
B|---------------------------------------------------------------------------|
G|-13-13-13-13-13-13-13-13-13-13-13-13-13-13-13-13---------------------------|
D|-14-14-14-14-14-14-14-14-14-14-14-14-14-14-14-14-13-14-14-14-14-14-14-14-14|
A|---------------------------------------------------------------------------|
E|---------------------------------------------------------------------------|

e|---------------------------------------------------------------------------|
B|---------------------------------------------------------------------------|
G|---------------------------------------------------------------------------|
D|----11-11-11-14-14-13-13---------------------------------------------------|
A|-11-12-12-12-15-15-15-15---------------------------------------------------|
E|---------------------------------------------------------------------------|

Guitar 1

e|-0-0-0-0-0-0-0-0-0-0-0-0-0-0-0-4-4-4-4-4-4-4-4-5-5-5-----------------------|
B|-0-0-0-0-0-0-0-0-0-0-0-0-0-0-0-5-5-5-5-5-5-5-5-5-5-5-----------------------|
G|-1-1-1-1-1-1-1-1-1-1-1-1-1-1-1-6-6-6-6-6-6-6-6-6-6-6-----------------------|
D|-2-2-2-2-2-2-2-2-2-2-2-2-2-2-2-6-6-6-6-6-6-6-6-7-7-7-10-10-9-9-------------|
A|-2-2-2-2-2-2-2-2-2-2-2-2-2-2-2-4-4-4-4-4-4-4-4-7-7-7-10-10-9-9-------------|
E|-0-0-0-0-0-0-0-0-0-0-0-0-0-0-0-----------------5-5-5-8--8--7-7-------------|

e|-0-0-0-0-0-0-0-0-0-0-0-0-0-0-0-0-0-0-0-0-0-0-0-0-0-0-0-0-0-0-0-------------|
B|-0-0-0-0-0-0-0-0-0-0-0-0-0-0-0-0-0-0-0-0-0-0-0-0-0-0-0-0-0-0-0-------------|
G|-1-1-1-1-1-1-1-1-1-1-1-1-1-1-1-1-1-1-1-1-1-1-1-1-1-1-1-1-1-1-1-------------|
D|-2-2-2-2-2-2-2-2-2-2-2-2-2-2-2-2-2-2-2-2-2-2-2-2-2-2-2-2-2-2-2-------------|
A|-2-2-2-2-2-2-2-2-2-2-2-2-2-2-2-2-2-2-2-2-2-2-2-2-2-2-2-2-2-2-2-------------|
E|-0-0-0-0-0-0-0-0-0-0-0-0-0-0-0-0-0-0-0-0-0-0-0-0-0-0-0-0-0-0-0-------------|

End on E

Guitar 2

e|---------------------------------------------------------------------------|
B|---------------------------------------------------------------------------|
G|-13-13-13-13-13-13-13-13-13-13-13-13-13-13-13-13---------------------------|
D|-------------------------------------------------13-14-14-14-14-14-14-14-14|
A|-11-11-11-11-11-11-11-11-11-11-11-11-11-11-11-11---------------------------|
E|-------------------------------------------------11-12-12-12-12-12-12-12-12|

e|---------------------------------------------------------------------------|
B|---------------------------------------------------------------------------|
G|---------------------------------------------------------------------------|
D|----7-7-7-10-10-9-9--------------------------------------------------------|
A|-11-7-7-7-10-10-9-9--------------------------------------------------------|
E|----5-5-5-8--8--7-7--------------------------------------------------------|

End on Ab

************************************

| x   Dead note
| p   Pull-off
| /   Slide up
| \   Slide down
| ~   Vibrato
| PM  Palm mute


************************************

            
            
Suggest correction
Creating personal tab
Creating personal tab
You can edit any tab online and save it as your Personal.

You can edit, replace or remove any tab part or add personal notes – all changes will be seen only by you.

Personal tabs can be accessed anytime from any device, even offline.
Learn more »
comments
print report bad tab
guest
You may want to rate the tab now too:
select rating
Wanna post a correction for this tab? Suggest correction