Oops, an error
Loading. Please wait.

El Error Acoustic chords

version 1
version 1

Whole song

Interactive

by Carajo
157 views 3 this week
no commentswrite comment
1 2 3 4 5
2 more votes to show rating
add to favorites
×
Save as Personal and add changes to this tab that will be seen only by you. Learn more ›
×
You can save this tab as Personal to edit and correct it or add notes. All changes will be seen only by you. Learn more »
launch autoscroll
font size
0
reset
transpose
0
reset
simplify chords
display chords
guitar tuner
edit
Autoscroll
slow
fast
+/-
esc
set tempo
stop
Strumming
There is no strumming pattern for this song yet. and get +5 IQ
D*           Bsus4           F*            E5           Bsus4*         C5
E A D G B e   E A D G B e   E A D G B e   E A D G B e   E A D G  B e   E A D G B e
x 5 7 7 0 0   x 2 4 4 0 0   x 3 3 2 0 0   x 7 9 9 0 0   x x 9 11 0 0   x 3 5 5 0 0 

[Intro]

eb|------------------------------------------------------------------ |
Bb|------------------------------------------------------------------ |
Gb|--------------------------------------2-2-2-/4--222--2-2-2-/4--222 |
Db|------2-2-2-/5--444--2-2-2-/5--444----2-2-2----------2-2-2-------- | x2
Ab|------2-2-2----------2-2-2------------0-2-0----------0-2-0-------- |
Eb|------0-0-0----------0-0-0---------------------------------------- |

Em
  Esclava del error, la humanidad,
G
  Por los siglos de los siglos estará,
Em
  Desigualdad, desilusión,
G
  Ha florecido la maldad de su ambición.
Em                     G
  Pariendo su ansiedad   insiste en rebelarse,
Em                     Bsus4                    D*
  Sufriendo al ignorar donde se esconde la verdad.

Em          G             Bm  C
  En cada falla habrás dejado
Em         G          Bm  C
  Un pedacito de terror
Em             G             F    F*
  Y continuamos lamentándonos del error.

eb|------------------------------------------------------------------ |
Bb|------------------------------------------------------------------ |
Gb|--------------------------------------2-2-2-/4--222--2-2-2-/4--222 |
Db|------2-2-2-/5--444--2-2-2-/5--444----2-2-2----------2-2-2-------- |
Ab|------2-2-2----------2-2-2------------0-2-0----------0-2-0-------- |
Eb|------0-0-0----------0-0-0---------------------------------------- |
Em
  Quien nunca morirá Es el error,
G
  Patina sobre el filo de la tentación,
Em
  Si es bueno para mí, es malo para vos,
G
  Será Que en mismo lugar no caben dos?
Em                  G
  Cerrados al pensar que la verdad no existe,
Em                  Bsus4              D*
  Dejamos la ilusión llena de cicatrices.
Em          G             Bm  C
  En cada falla habrás dejado
Em         G          Bm  C
  Un pedacito de terror
Em             G             F    F*
  Y continuamos lamentándonos del error.

E5               Bsus4*
  La vida endureció Al tonto corazón
C5                 Asus2
  Llenándolo de espinas de valor,
E5                  Bsus4*
  El tiempo se escapo, por donde nadie vio
C5                 Asus2
  Y quieren atraparlo
     E5    Bsus4*  C5             Asus2
  Para vengarse,   vengarse
E5        Bsus4* C5               Asus2
  Vengarse!


Em          G             Bm  C
  En cada falla habrás dejado
Em         G          Bm  C
  Un pedacito de terror
Em             G             F    F*
  Y continuamos lamentándonos del error.



************************************

| b  Bend
| /  Slide up

************************************

            
            
Suggest correction
Creating personal tab
Creating personal tab
You can edit any tab online and save it as your Personal.

You can edit, replace or remove any tab part or add personal notes – all changes will be seen only by you.

Personal tabs can be accessed anytime from any device, even offline.
Learn more »
Give kudos to tab author, rate the tab!
1 2 3 4 5
comments
print report bad tab
guest
You may want to rate the tab now too:
select rating
Wanna post a correction for this tab? Suggest correction