Oops, an error
Loading. Please wait.

Ironia tab

by Carajo
723 views 1 this week
no commentswrite comment
1 2 3 4 5
3 more votes to show rating
add to favorites
×
Save as Personal and add changes to this tab that will be seen only by you. Learn more ›
×
You can save this tab as Personal to edit and correct it or add notes. All changes will be seen only by you. Learn more »
launch autoscroll
font size
0
reset
how to read this tab
guitar tuner
edit
Autoscroll
slow
fast
+/-
esc
set tempo
stop
Afinación:
1-----C
2-----G
3-----Eb
4-----Bb
5-----F
6-----Bb

Estructura:

Intro / verso 1  x4
Tapping          x7
Fill             x1
Estribillo       x2
Tapping          x4
Verso 2          x2
Tapping          x7
Fill             x1
Break            x1
Estribillo       x2
2da intro        x1
Verso 4          x2
Tapping          x7
Fill             x1
Estribillo       x2
Break            x1
Break final      x1

Intro / verso 1:
|------------------------------------------------------------------
|--5-----------4-----------5-------2---2-2---------5-----------4---
|--6-------5-6---5-------6-6-----2---1-----------6-6-------5-6---5-
|--6-----6-------------6---6-------------------6---6-----6---------
|--4---3-------------4-----4---0-------------4-----4---3-----------
|------------------------------------------------------------------

---------------------|
--------5-------2----|
------6-6-----2---1--|
----6---6------------|
--4-----4---0--------|
---------------------|

Tapping:
|--------------------------------------------------|
|--------------------------------------------------|
|----------------------------T19--T17--------------|
|-----T19p14T17-----T19p14-------------T17-T17h19--|
|--12------------12--------------------------------|
|--------------------------------------------------|

Fill:
|------------------------------------------------|
|--16-16-16-16-16-16-16-16-16-16-16-16-16-16-16--|
|--17-17-17-17-17-17-17-17-17-17-17-17-17-17-17--|
|--17-17-17-17-17-17-17-17-17-17-17-17-17-17-17--|
|--15-15-15-15-15-15-15-15-15-15-15-15-15-15-15--|
|------------------------------------------------|

Estribillo:
|--------------------------------------------------------------|
|-----------------------5---5---------------------14-14-14-14--|
|-----------------------3---3---------------------15-15-15-15--|
|--0--0-2--3--3-1--0--1---1----0--0-2--3--3-5--0--15-15-15-15--|
|--0--0-2--3--3-1--0--1---1----0--0-2--3--3-5--0--13-13-13-13--|
|--0--0-2--3--3-1--0--1---1----0--0-2--3--3-5--0---------------|

Verso 2:
|---------------------------------------|
|--5----------4----------------2---2-2--|
|--6------5-6---5------------2---1------|
|--6----6-------------------------------|
|--4--3--------------------0------------|
|---------------------------------------|

Break:
|-----------------------------------------------------------
|----------------------------5------------------------------
|----------------------------6------------------------------
|--1-1-0-0--0-1-1-1-0-0-0-0--6--1-1-0-0--0-1-1-1-0-0-0-0--4-
|--1-1-0-0--0-1-1-1-0-0-0-0--4--1-1-0-0--0-1-1-1-0-0-0-0--4-
|--1-1-0-0--0-1-1-1-0-0-0-0-----1-1-0-0--0-1-1-1-0-0-0-0--4-

--------------------------------------------------------------|
---------------------------5----------------------------------|
---------------------------6----------------------------------|
-1-1-0-0--0-1-1-1-0-0-0-0--6--1-1-0-0--0-4-4-4-3-3-3-2-1-1-1--|
-1-1-0-0--0-1-1-1-0-0-0-0--4--1-1-0-0--0-4-4-4-3-3-3-2-1-1-1--|
-1-1-0-0--0-1-1-1-0-0-0-0-----1-1-0-0--0-4-4-4-3-3-3-2-1-1-1--|

2da intro:
|------------------------------------------|
|--5----------4-----------5-------2---2-2--|
|--6------5-6---5-------6-6-----2---1------|
|--6----6-------------6---6----------------|
|--4--3-------------4-----4---0------------|
|------------------------------------------|

Verso 4:
|--------------------------------------------------------------------|
|--------------------------------------------------------------------|
|--7-7-7-7-7-7-7-7-7-9-9-9-9-9-9-10-10-10---2-2-2-2-2-2-1-1-1-1-1-1--|
|--0-0-0-0-0-0-0-0-0-0-0-0-0-0-0-0--0--0----2-2-2-2-2-2-2-2-2-2-2-2--|
|-------------------------------------------0-0-0-0-0-0-0-0-0-0-0-0--|
|--------------------------------------------------------------------|

Break final:
|-----------------------------------------------------------
|----------------------------5------------------------------
|----------------------------6------------------------------
|--1-1-0-0--0-1-1-1-0-0-0-0--6--1-1-0-0--0-1-1-1-0-0-0-0--4-
|--1-1-0-0--0-1-1-1-0-0-0-0--4--1-1-0-0--0-1-1-1-0-0-0-0--4-
|--1-1-0-0--0-1-1-1-0-0-0-0-----1-1-0-0--0-1-1-1-0-0-0-0--4-

-------------------------------------------------------------|
---------------------------5---------------------------------|
---------------------------6---------------------------------|
-1-1-0-0--0-1-1-1-0-0-0-0--6--1-1-0-0--0-1-1-1-0-0-0-0---4/--|
-1-1-0-0--0-1-1-1-0-0-0-0--4--1-1-0-0--0-1-1-1-0-0-0-0---4/--|
-1-1-0-0--0-1-1-1-0-0-0-0-----1-1-0-0--0-1-1-1-0-0-0-0---4/--|

Letra:

La ansiedad contra la paciencia,
la verdad frente a la mentira,
serpiente que guia el rumbo
de quienes intentan seguir.
Quien aprende a mirar
que hay en su corazón
sabra bien que este también
te puede engañar.
LA soberbia Abofeteó
la cara de la humildad
y ésta así dejó de ser tan inocente.
Saltando frente a ti va la ironía,
con todas nuestras miserias encima.
Calaveras que chillan locas,
caretas que aún no se caen,
para disimular su ignorancia.
¡es terrible lo que el hombre puede hacer!
Un amor se convirtió
en la cárcel ideal,
es irónico pensar
que esto sea verdad,
el triunfo fue perder,
la derrota fue ganar,
conseguir lo que buscas
puede ser lo peor, lo peor!
Saltando frente a ti va la ironía,
con todas nuestras miserias encima.
No hay mal que por bien no venga,
sin suerte para la desgracia.
un trofeo que vino de culo,
un error que no se pudo evitar!
En el túnel del amor
nos volvimos a encontar,
es irónico pensar que eso sea verdad,
a la orilla del dolor,
a la vuelta de la paz,
nos dejamos de joder!
Saltando frente a ti va la ironía,
con todas nuestras miserias encima!
¡La ironía!

            
            
Suggest correction
Creating personal tab
Creating personal tab
You can edit any tab online and save it as your Personal.

You can edit, replace or remove any tab part or add personal notes – all changes will be seen only by you.

Personal tabs can be accessed anytime from any device, even offline.
Learn more »
Give kudos to tab author, rate the tab!
1 2 3 4 5
comments
print report bad tab
guest
Wanna post a correction for this tab? Suggest correction