Oops, an error
Loading. Please wait.

La Huella Del Depredador tab

by Carajo
103 views 1 this week
no commentswrite comment
1 2 3 4 5
3 more votes to show rating
add to favorites
×
Save as Personal and add changes to this tab that will be seen only by you. Learn more ›
×
You can save this tab as Personal to edit and correct it or add notes. All changes will be seen only by you. Learn more »
launch autoscroll
font size
0
reset
how to read this tab
guitar tuner
edit
Autoscroll
slow
fast
+/-
esc
set tempo
stop
BuEnO aCa LeS dEjO lA hUeLlA dEl DePrEdAdOr.
Me MoRí SaCaNdOlA aSi QuE eSpErO qUe LeS sIrVa
PoRqUe SuEnA bAsTaNtE bIeN.
GRACIAS

AFINACION:
1-----E
2-----B
3-----G
4-----D
5-----A
6-----D

Estructura:

Intro       x1
Riff 1      x2
Verso 1     x2
Verso 2     x1
Riff 1      x2
Estribillo  x2
Verso 1     x2
Verso 3     x2
Estribillo  x3
Fill        x1
Riff 1      x1
Break       x1
Verso 4     x1
Fill        x2
Estribillo  x4
Fill 2      x4
Final       x2

Intro:
1|------------------------------------------------------------
2|------------------------------------------------------------
3|------------------------------------------------------------
4|--4-4-4-7-7-5-4-7-7-5-4-2-2-2---4-4-4-7-7-5-4-7-7-5-4-5-5-5-
5|--4-4-4-7-7-5-4-7-7-5-4-2-2-2---4-4-4-7-7-5-4-7-7-5-4-5-5-5-
6|--4-4-4-7-7-5-4-7-7-5-4-2-2-2---4-4-4-7-7-5-4-7-7-5-4-5-5-5-

-----------------------------------------------------|
-----------------------------------------------------|
-----------------------------------------------------|
--4-4-4-7-7-5-4-7-7-5-4-2-2-2---4-4-4-7-7-5---4-5-5--|
--4-4-4-7-7-5-4-7-7-5-4-2-2-2---4-4-4-7-7-5---4-5-5--|
--4-4-4-7-7-5-4-7-7-5-4-2-2-2---4-4-4-7-7-5---4-5-5--|

Riff 1:
1|-------------------------------------------------------------|
2|-------------------------------------------------------------|
3|-------------------------------------------------------------|
4|--4-4-4-7-7-5-4-7-7-5-4-2-2-2---4-4-4-7-7-5-4-7-7-5-4-5-5-5--|
5|--4-4-4-7-7-5-4-7-7-5-4-2-2-2---4-4-4-7-7-5-4-7-7-5-4-5-5-5--|
6|--4-4-4-7-7-5-4-7-7-5-4-2-2-2---4-4-4-7-7-5-4-7-7-5-4-5-5-5--|

Verso 1:
1|--------------------------------------------------------------|
2|--------------------------------------------------------------|
3|--------6h8--8-8-8-8-8p6-6h8-6/4---------4-6-4-3-4-4p3--------|
4|--4-4-4-0-0--0-0-0-0-0-0-0-0-0-0--4-4-4--0-0-0-0-0-0-0--4--4--|
5|--4-4-4---------------------------4-4-4-----------------4--4--|
6|--4-4-4---------------------------4-4-4-----------------4--4--|

Verso 2:
1|---------------------------------------------------------
2|---------------------------------------------------------
3|---------------------------6h8-6/4-----------------6h8-8-
4|--4-4-4--------------------0-0-0-0--4-4-4----------0-0-0-
5|--4-4-4-----------------------------4-4-4----------------
6|--4-4-4-----------------------------4-4-4----------------

-------------------------------------------------------|
-------------------------------------------------------|
--------------------------6h8-6/4----------------------|
-4-4-4--------------------0-0-0-0--4-4-4---4-4--x-4-4--|
-4-4-4-----------------------------4-4-4---4-4--x-4-4--|
-4-4-4-----------------------------4-4-4---4-4--x-4-4--|

Estribillo:
1|--4-4-4-4-4-4-4-4-4-4-4-4-4-4-4-4--8--8--8--8--8--8--8--8--
2|--4-4-4-4-4-4-4-4-4-4-4-4-4-4-4-4--8--8--8--8--8--8--8--8--
3|--6-6-6-6-6-6-6-6-6-6-6-6-6-6-6-6--10-10-10-10-10-10-10-10-
4|--6-6-6-6-6-6-6-6-6-6-6-6-6-6-6-6--10-10-10-10-10-10-10-10-
5|--4-4-4-4-4-4-4-4-4-4-4-4-4-4-4-4--8--8--8--8--8--8--8--8--
6|-----------------------------------------------------------

-6-6-6-6-6-6-6-6--|
-6-6-6-6-6-6-6-6--|
-8-8-8-8-8-8-8-8--|
-8-8-8-8-8-8-8-8--|
-6-6-6-6-6-6-6-6--|
------------------|

                     estos ocho se hacen tocando
                     la cuerda sin apretar el traste
Verso 3:                 A
1|-----------------------|----------------------|
2|-----------------------|----------------------|
3|---------------------8-8-8--------------------|
4|--4-4-4----4-4--4-4----------4-4-4--4-4--4-4--|
5|--4-4-4----4-4--4-4----------4-4-4--4-4--4-4--|
6|--4-4-4----4-4--4-4----------4-4-4--4-4--4-4--|

Fill:
1|-------|
2|-------|
3|-------|
4|--4-4--|
5|--4-4--|
6|--4-4--|

Break:
1|-----------------------------------------------------------------|
2|-----------------------------------------------------------------|
3|-----------------------------------------------------------------|
4|--4-4-4-7-7-5-4-7-7-5-4-2-2-2---4-4---x-4-4---x-4-4---4-4-4/8-8--|
5|--4-4-4-7-7-5-4-7-7-5-4-2-2-2---4-4---x-4-4---x-4-4---4-4-4/8-8--|
6|--4-4-4-7-7-5-4-7-7-5-4-2-2-2---4-4---x-4-4---x-4-4---4-4-4/8-8--|

Verso 4:
1|-----4-----4--------------8------6--6-6-|
2|-----4-----4--------------8------6--6-6-|
3|--6-----6----6-7/6---10-------8---------| x3
4|--6-----6------------10-------8---------|
5|--4-----4------------8--------6---------|
6|----------------------------------------|

|----4---10-9-9/5-5/9-7--|
|----4----------------7--|
|-6----------------------| X1
|-6----------------------|
|-4----------------------|
|------------------------|

Fill 2:
1|------------|
2|------------|
3|------------|
4|--4-4--4-4--|
5|--4-4--4-4--|
6|--4-4--4-4--|

Fill 2:
1|--------------------------------|
2|--------------------------------|
3|--------------------------------|
4|--4-4--x-4-4--x-4-4--4-4/8-8-8--|
5|--4-4--x-4-4--x-4-4--4-4/8-8-8--|
6|--4-4--x-4-4--x-4-4--4-4/8-8-8--|

Final:
1|-----------------------------------------------------------|
2|-----------------------------------------------------------|
3|-----------------------------------------------------------|
2|--4-4--0-4-4--0-4-4--4-4/5-5-5---4-4--0-4-4--0-4-4--4-4/8--|
5|--4-4--0-4-4--0-4-4--4-4/5-5-5---4-4--0-4-4--0-4-4--4-4/8--|
6|--4-4--0-4-4--0-4-4--4-4/5-5-5---4-4--0-4-4--0-4-4--4-4/8--|
111111111111111111111111111111111111111111111111111111111111111111111111111
Letra:

si dejásemos de actuar como si fuéramos dueños,
comprendiendo que en este lugar sólo somos pasajeros,
encontraríamos la armonía plena de convivir con lo que nos rodea,
si la tierra nos entrega todo ¿por qué ser tan crueles?
Cruel huella del dolor,prepotencia;
cruel huella del dolor, la firma del depredador.
nuestra madre nos está llamando, su naturaleza no calló,
grito que no se oye en la ciudad, advertencia para el hombre de hoy,
la conciencia romperá cadenas, destiñiendo todas las banderas,
desterrando de nuestro planeta todo el dolor y la violencia.
cruel huella del dolor, prepotencia;
cruel huella del dolor, arrogancia;
cruel huella del dolor, la firma del depredador,
su cruel huella verás.
viejo instinto de matar, el origen del final,
viejo instinto de matar, vuelto en nuestra contra.
cruel hueela del dolor, prepotencia;
cruel huella del dolor, arrogancia;
cruel huella del dolor, ignorancia;
cruel huella del dolor, la firma del depredador.
su cruel huella verás; es el depredador.


BuEnO, cUaLqUiEr DuDa EsCrIbAnMe A mI cOrReO
fEdEbItScHiN_03@
FlOr Te ReConTrA aMo. Me InsPiRaStE mUcHo PaRa
SaCaR lA tAb. Te QuIeRo MuChO~
Y AGUANTE CARAJO!!!!!!!!!!

            
            
Suggest correction
Creating personal tab
Creating personal tab
You can edit any tab online and save it as your Personal.

You can edit, replace or remove any tab part or add personal notes – all changes will be seen only by you.

Personal tabs can be accessed anytime from any device, even offline.
Learn more »
Give kudos to tab author, rate the tab!
1 2 3 4 5
comments
print report bad tab
guest
Wanna post a correction for this tab? Suggest correction