Oops, an error
Loading. Please wait.

Sacate La Mierda bass

version 1
version 1

Whole song

Interactive

by Carajo
374 views 3 this week
no commentswrite comment
1 2 3 4 5
3 more votes to show rating
add to favorites
×
Save as Personal and add changes to this tab that will be seen only by you. Learn more ›
×
You can save this tab as Personal to edit and correct it or add notes. All changes will be seen only by you. Learn more »
launch autoscroll
font size
0
reset
guitar tuner
edit
Autoscroll
slow
fast
+/-
esc
set tempo
stop
Carajo-Sacate la mirda


intro de guitarra-


Riff principal y Nº1- '...sin anestecia, la revelion despierta...'
G|----------------------|                         G|---------------|
D|----------------------| ----   A VECES   ----\  D|---------------|
F|----------------------| ----  HACE ESTO  ----/  F|---------------|
C|--5--3---3-1----100000|                         C|--5--3---3-1---|

Riff Nº2- '...sin venguenza, sin verguenza...'
G|------------------|
D|------------------|x3
F|--22-2-2-2--------|
C|------------0-2-3-|

G|-------------|
D|-------------|
F|--222--------|
C|-------------|

Riff Nº3- '...dejando escapar todo el odio que va pudriendo...'
G|--------------------------------|
D|--------------------------------|x2
F|--2222----------------5-5-22----|
C|--------2-2--3--2--0------------|


Riff Nº1- '...pudriendo nuestra fe...'


Riff Nº3- '...dejando escapar todo el odio que va pudriendo...'


Riff Nº4- '...nuestra fe... muerta... nustra fe... AAAAHHHH...!!!'
G|--------------|
D|--------------|x4
F|--------------|
C|--77-77-------|

Riff Nº5- '...nada mas, nada mas queda por esperar...'
G|---------------------------------------------------------------------------------------|
D|---------------------------------------------------------------------------------------|x4
F|--4444444444444444/6666666666666666/7777777777777777/9999999999999999--11-11--12-12----|
C|---------------------------------------------------------------------------------------|

Riff Nº4- '-NNNNNOOOOO!!!, Basta, sacate la mierda... basta, SACATEEE LAA MIRDAAAAAA...!!!'
G|--------------|
D|--------------|x3
F|--------------|
C|--77-77-------|

                 \
G|--------------| |
D|--------------| |'¡¡¡...SACATE LA MIERDA...!!! ...AH...
F|--------------| |
C|--99--99------| |
                 /


bueno gente, aca esta la version en cuatro cuerdas de Sacate la mierda, un temazo!!!
bueno el tema esta en C (DO), solo hece falta afinar las ultimas, es decir: la cuarta en C (DO)
y la tercera en F (FA)... bueno espero que los sirva y si le ven alguna falla no duden en decirme, 
pero para mi esta bien...
bueno quejas, pedidos, aportes (como 'sol' o 'criminales de raices'
-version de acosados, no combativo- de a.n.i.m.a.l.) a robert02_mdq@ o a 


////***Robert-BassMan***////

            
            
Suggest correction
Creating personal tab
Creating personal tab
You can edit any tab online and save it as your Personal.

You can edit, replace or remove any tab part or add personal notes – all changes will be seen only by you.

Personal tabs can be accessed anytime from any device, even offline.
Learn more »
Give kudos to tab author, rate the tab!
1 2 3 4 5
comments
print report bad tab
guest
Wanna post a correction for this tab? Suggest correction