Oops, an error
Loading. Please wait.

Sacate La Mierda tab

version 5
version 5

Whole song

Interactive

by Carajo
169 views 6 this week
no commentswrite comment
1 2 3 4 5
3 more votes to show rating
add to favorites
×
Save as Personal and add changes to this tab that will be seen only by you. Learn more ›
×
You can save this tab as Personal to edit and correct it or add notes. All changes will be seen only by you. Learn more »
launch autoscroll
font size
0
reset
how to read this tab
guitar tuner
edit
Autoscroll
slow
fast
+/-
esc
set tempo
stop
Intro

c |-----19-19-19-------------------------------------|
g |--------------19-19-19-19-19-20-20-20-20----------|
Eb|-----------------------------------------19-19-19-| x4
Bb|--------------------------------------------------|
F |--------------------------------------------------|
Bb|--------------------------------------------------|

Arranca el bajo y la bateria

c |-----19-19-19-------------------------------------|
g |--------------19-19-19-19-19-20-20-20-20----------|
Eb|-----------------------------------------19-19-19-| x15
Bb|--------------------------------------------------|
F |--------------------------------------------------|
Bb|--------------------------------------------------|

c |-----19-19-19-----------------------x-x-x-x-x-----|
g |--------------19-19-19-19-19-20-20--x-x-x-x-x-----|
Eb|------------------------------------x-x-x-x-x-----|
Bb|------------------------------------x-x-x-x-x-----|
F |--------------------------------------------------|
Bb|--------------------------------------------------|

Pre Coro

c |---------------------------|
g |---------------------------|
Eb|---------------------------|
Bb|--9-92--4204-4-5-5-7-7-----|x4
F |--9-92--4204-4-5-5-7-7-----|
Bb|--9-92--4204-4-5-5-7-7-----|

Coro

c |-----------------|----------------|---------------------|
g |-----------------|----------------|---------------------|
Eb|--4-4------------|----------------|-4-------------------|
Bb|--4-4-4-4--4-4-4-|-5-5--2--2-2-2--|-4--4--0-----------5-|
F |--2-2-4-4--4-4-4-|-5-5--2--2-2-2--|-2--4--0-(0)(0)(0)-5-|
Bb|------4-4--4-4-4-|-5-5--2--2-2-2--|----4--0--0--0--0--5-|
                                                        Dejar sonando

Break limpio (con Delay)

c |--7--7--------------------------------------------|
g |------7---7-8--10------8--7-7-7-8-10-8---8--------|
Eb|-----------------------------------------7--------| x3
Bb|--------------------------------------------------|
F |--------------------------------------------------|
Bb|--------------------------------------------------|
                                                Dejar sonando

Verso 2

c |-----19-19-19-------------------------------------|
g |--------------19-19-19-19-19-20-20-20-20----------|
Eb|-----------------------------------------19-19-19-| x7
Bb|--------------------------------------------------|
F |--------------------------------------------------|
Bb|--------------------------------------------------|

c |-----19-19-19----------------------------------24-|
g |--------------19-19-19-19-19-20-20-20-20----------|
Eb|-----------------------------------------19-19----|
Bb|--------------------------------------------------|
F |--------------------------------------------------|
Bb|--------------------------------------------------|

Pre coro

c |---------------------------|
g |---------------------------|
Eb|---------------------------|
Bb|--9-92--4204-4-5-5-7-7-----|x4
F |--9-92--4204-4-5-5-7-7-----|
Bb|--9-92--4204-4-5-5-7-7-----|

Coro

c |-----------------|----------------|-------------------|-------------|
g |-----------------|----------------|-------------------|-------------|
Eb|--4-4------------|----------------|-4-----------------|-------------|
Bb|--4-4-4-4--4-4-4-|-5-5--2--2-2-2--|-4--4--0-----------|-5-5-2--2-2-2|
F |--2-2-4-4--4-4-4-|-5-5--2--2-2-2--|-2--4--0-(0)(0)(0)-|-5-5-2--2-2-2|
Bb|------4-4--4-4-4-|-5-5--2--2-2-2--|----4--0--0--0--0--|-5-5-2--2-2-2|

c |-----------------|----------------|-------------------|-------------|
g |-----------------|----------------|-------------------|-------------|
Eb|--4-4------------|----------------|-4-----------------|-------------|
Bb|--4-4-4-4--4-4-4-|-5-5--2--2-2-2--|-4--4--0-----------|-5-5-5--5-5-5|
F |--2-2-4-4--4-4-4-|-5-5--2--2-2-2--|-2--4--0-(0)(0)(0)-|-5-5-5--5-5-5|
Bb|------4-4--4-4-4-|-5-5--2--2-2-2--|----4--0--0--0--0--|-5-5-5--5-5-5|

c |-------------------|
g |-------------------|
Eb|--4-4---4--4-4-4-4-|
Bb|--4-4---4--4-4-4-4-|x4
F |--2-2---2--2-2-2-2-|
Bb|-------------------|

Berak y verso

c |-------------|----------------------|---------------|----------------|
g |-------------|----------------------|---------------|----------------|
Eb|-------------|----------------------|---------------|----------------|
Bb|--0---0---0--|----------------------|----4---4---4--|--------------9-|x3
F |2---2---2----|-4---7---4---7---7---4|--5---5---5----|--7---10---7----|
Bb|-------------|----------------------|---------------|----------------|

c ||---------------|----------------------|---------------|---------------|
g ||---------------|----------------------|---------------|---------------|
Eb||---------------|----------------------|---------------|---------------|
Bb||----0---0---0--|----------------------|----4---4---4--|--2------------|
F ||--2---2---2----|-4---7---4---7---7---4|--5---5---5----|--2------------|
Bb||---------------|----------------------|---------------|--2------------|

Coro final

c |-----------------|----------------|-------------------|-------------|
g |-----------------|----------------|-------------------|-------------|
Eb|--4-4------------|----------------|-4-----------------|-------------|
Bb|--4-4-4-4--4-4-4-|-5-5--2--2-2-2--|-4--4--0-----------|-5-5-2--2-2-2|x3
F |--2-2-4-4--4-4-4-|-5-5--2--2-2-2--|-2--4--0-(0)(0)(0)-|-5-5-2--2-2-2|
Bb|------4-4--4-4-4-|-5-5--2--2-2-2--|----4--0--0--0--0--|-5-5-2--2-2-2|

c |-----------------|----------------|-------------------|-------------|
g |-----------------|----------------|-------------------|-------------|
Eb|--4-4------------|----------------|-4-----------------|-------------|
Bb|--4-4-4-4--4-4-4-|-5-5--2--2-2-2--|-4--4--0-----------|-5-5-5--5-5-5|
F |--2-2-4-4--4-4-4-|-5-5--2--2-2-2--|-2--4--0-(0)(0)(0)-|-5-5-5--5-5-5|
Bb|------4-4--4-4-4-|-5-5--2--2-2-2--|----4--0--0--0--0--|-5-5-5--5-5-5|

Outro

c |-------------------|
g |-------------------|
Eb|--4-4---4--4-4-4-4-|
Bb|--4-4---4--4-4-4-4-|x4
F |--2-2---2--2-2-2-2-|
Bb|-------------------|

C |-------------------|  |-------------------|
g |-------------------|  |-------------------|
Eb|-------------------|  |-------------------|
Bb|--1-1---1--1-1-1-1-|x3|--1-1--------------|
F |--1-1---1--1-1-1-1-|  |--1-1--------------|
Bb|--1-1---1--1-1-1-1-|  |--1-1--------------|

Letra
Sin anestesia, la rebelion despierta
En la calle se manifiesta
La paciencia ya se acabó
Y nace la violencia

Miro la t.v. y odio lo que veo
Hay que meterlos a todos presos
Tanta propaganda para la corrupcion
Asesinando al pueblo.

Mierda, todo se degenera,
La vieja trampa nos espera
Sea como sea hay que escaparle
A toda esta manga de charlatanes

Mierda, este caos apesta
Y solo nuestra muerte alimenta
Pumm pumm echando bala al que protesta
Por sacar todo el dolor afuera

Sin vergüenza
Sin vergüenza

Dejando escapar todo el odio que va
Pudriendo nuestra fe
Pudriendo nuestra fe

La sociedad es individual
La libertad es condicional
Trabajar por una puta limosna
La economia nos robó la vida

Rota quedo nuestra historia
Se va con pena y sin gloria
Y como cuesta mantener la esperanza
Cuando la comida no alcanza
Ya no hay nada mas que esperar
La honestidad no existe mas
Basta de cagarnos la cara,
Salimos a buscar lo que nadie nos da

Sin vergüenza
Sin vergüenza

Dejando escapar todo el odio que va
Pudriendo nuestra fe
Dejando escapar todo el odio que va
Pudriendo nuestra fe

Nuestra fe muerta
Nuestra fe, no

Nada mas, nada mas queda por esperar
Nada mas que esperar
Nada mas que esperar
Nada mas que esperar
Nada mas que esperar
Nada mas, nada mas queda por esperar

Dejando escapar todo el odio que va
Pudriendo nuestra fe
Dejando escapar todo el odio que va
Pudriendo nuestra fe
Dejando escapar todo el odio que va
Dejando escapar todo el odio que va
Dejando escapar todo el odio que va
Pudriendo nuestra fe

Nuestra fe muerta
Nuestra fe, no
Basta, sacate la mierda
Basta, sacate la mierda!!!

---------------------------

A mi me suena muy bien, y esta en afinacion
como pro ejemplo ironia, o el Vago
Asi no hay que cambiar de afinacion a cada rato

            
            
Suggest correction
Creating personal tab
Creating personal tab
You can edit any tab online and save it as your Personal.

You can edit, replace or remove any tab part or add personal notes – all changes will be seen only by you.

Personal tabs can be accessed anytime from any device, even offline.
Learn more »
Give kudos to tab author, rate the tab!
1 2 3 4 5
comments
print report bad tab
guest
Wanna post a correction for this tab? Suggest correction