Oops, an error
Loading. Please wait.

Triste tab

version 2
version 2

Whole song

by Carajo
289 views 3 this week
no commentswrite comment
1 2 3 4 5
2 more votes to show rating
add to favorites
×
Save as Personal and add changes to this tab that will be seen only by you. Learn more ›
×
You can save this tab as Personal to edit and correct it or add notes. All changes will be seen only by you. Learn more »
launch autoscroll
font size
0
reset
how to read this tab
guitar tuner
edit
Autoscroll
slow
fast
+/-
esc
set tempo
stop
Afinación:
1-----C
2-----G
3-----EB
4-----Bb
5-----F
6-----Bb

Estructura
Intro       x1
Verso 1     x1
Verso 2     x2
Verso 1     x1
Estribillo  x1
Solo        x1
Verso 2     x2
Verso 3     x2
Estribillo  x1
Break 1     x2
Break 2     x2
Verso 4     x4
Intermedio  x1
Estribillo  x2
Break 1     x2
Break 2     x1
Break 1     x1
Final       x1


Intro:
|---------------|
|--5~--6--6~p5--|
|---------------|
|---------------|
|---------------|
|---------------|

|----------------------------8-----------------------------------8-------|
|-------6-5--8-----------6-5---5h6---------6-5--8-----------6-5----5--6--|
|--5--7--------7----5--7--------------5--7--------7----5--7--------------|
|--0--0-------------0--0--------------0--0-------------0--0--------------|
|------------------------------------------------------------------------|
|------------------------------------------------------------------------|

Verso 1:
|-----------------------------8------------------------
|-------6-5--8-----------6-5----5--6---------6-5--8----
|--5--7--------7----5--7----------------5--7--------7--
|--0--0-------------0--0----------------0--0-----------
|------------------------------------------------------
|------------------------------------------------------

------------8-6-5----|
-------6-5--------6--|
--5--7---------------|
--0--0---------------|
---------------------|
---------------------|

Verso 2:
|--------------10----------8--------8------|
|-----6----8-------8---------6--------6----|
|-----7------9-------9---------7--7-----7--|
|-----7----------------10------------------|
|--5--5------------------------------------|
|------------------------------------------|

Estribillo:
|-------------------------------------------------------------|
|--4--4----8--8------------6--6----4--4----8--8------------6--|
|--7--7----7--7------------5--5----7--7----7--7------------5--|
|--7--7----5--5----8--8----3--3----7--7----5--5----8--8----3--|
|--5--5----5--5----8--8----3--3----5--5----5--5----8--8----3--|
|----------5--5----8--8----3--3------------5--5----8--8----3--|

Solo:
|------------------------------------------------------10---------
|------------------------------------6-5-------6---8-------8------
|--7------7--5-5----5-5-7----------7-----5-----7-----9-------9----
|-------7-----------------5----7-8-------------7---------------10-
|-------------------------------------------5--5------------------
|-----------------------------------------------------------------

-8-----------8--6-5----|
---6----------------6--|
-----7-----------------|
-------8--8------------|
-----------------------|
-----------------------|

Verso 3:
|-----------------------10-10-10-10-10-10-10-10-10-10-
|--6-6-6-6-6-6-6-6-6-6--8--8--8--8--8--8--8--8--8--8--
|--7-7-7-7-7-7-7-7-7-7--9--9--9--9--9--9--9--9--9--9--
|--7-7-7-7-7-7-7-7-7-7--10-10-10-10-10-10-10-10-10-10-
|--5-5-5-5-5-5-5-5-5-5--------------------------------
|-----------------------------------------------------

-8-8-8-8-8-8-8-8-8-8--8-8-8-8-8-8-8-8-8-8--|
-6-6-6-6-6-6-6-6-6-6--6-6-6-6-6-6-6-6-6-6--|
-7-7-7-7-7-7-7-7-7-7--7-7-7-7-7-7-7-7-7-7--|
-8-8-8-8-8-8-8-8-8-8--8-8-8-8-8-8-8-8-8-8--|
-------------------------------------------|
-------------------------------------------|

Verso 4:
|-----------------------------------------------
|--10-10-10-10-10-10-10-10-10-10-10-10-10-10-10-
|--10-10-10-10-10-10-10-10-10-10-10-10-10-10-10-
|--8--8--8--8--8--8--8--8--8--8--8--8--8--8--8--
|-----------------------------------------------
|-----------------------------------------------

-----------------------------------------------|
-----------------------------------------------|
-12-12-12-12-12-12-12-12-12-12-12-12-12-12-12--|
-12-12-12-12-12-12-12-12-12-12-12-12-12-12-12--|
-10-10-10-10-10-10-10-10-10-10-10-10-10-10-10--|
-----------------------------------------------|

Intermedio:
|--------------------------------|
|-------6-5--8-----------6-5--5--|
|--5--7--------7----5--7---------|
|--0--0-------------0--0---------|
|--------------------------------|
|--------------------------------|

Break 1:
|---------------------------|
|---------6-8-5------6--8-5-|
|---------7-7-5------7--7-5-|
|---------7-5-3------7--5-3-|
|---------5-5-3------5--5-3-|
|--0---0---------0-0--------|

Break 2:
|-------------------------|
|--------6-8-5------6--8--|
|--------7-7-5------7--7--|
|--------7-5-3------7--5--|
|--------5-5-3------5--5--|
|-0---0---------0-0-------|

Final:
|----------------|
|---------6-8----|
|---------7-7----|
|---------7-5----|
|---------5-5-0--|
|--0---0------0--|


Letra

Dame la fuerza para seguir, amigo,
dame la fuerza para alcanzar tu mano,
dame la fuerza para seguir, amor,
dame la fuerza para seguir,que solo no puedo
que triste es vivir sin intentar,
que triste es morir sin haber amado,
dame la fuerza para llegar, señor,
dame la fuerza para llegar bien alto
me doy fuerzas para reir y me doy fuerzas para reir,
asi no me muero.
Buscando señales que muestren donde hay felicidad,
se pierde la gente sin encontrar feliciadad.
Que triste es vivir sin intentar.
Que triste es morir sin haber amado,
que triste es vivir sin despertar,
que triste es morir sin haber calmado tu sed.
Buscando señales que muestren donde hay felicidad,
se pierde la gente sin encontrar felicidad
¡Tristes!! ¡Tristes!!!
Bondad, vulnerable, resiste,
dejandose castigar de pie,
siguiendo el consejo que dice:
"que desde abajo se puede crecer".
Se pierde la gente sin encontrar...felicidad
buscando señales que muestren donde hay felicidad,
se pierde la gente sin encontrar felicidad.
siguiendo señales, tentando a perder
y aún vencido, no renunciar;
y aquellos que no dan nada a cambio
Jamás encontraran... ¡Felicidad!!
¡Tristes!! ¡Tristes!!!

            
            
Suggest correction
Creating personal tab
Creating personal tab
You can edit any tab online and save it as your Personal.

You can edit, replace or remove any tab part or add personal notes – all changes will be seen only by you.

Personal tabs can be accessed anytime from any device, even offline.
Learn more »
Give kudos to tab author, rate the tab!
1 2 3 4 5
comments
print report bad tab
guest
Wanna post a correction for this tab? Suggest correction