Oops, an error
Loading. Please wait.

Caramelldansen bass

version 1
version 1

Whole song

Interactive

3,907 views 1 this week
2 commentsread comments
1 2 3 4 5
1 last vote to show rating
add to favorites
×
Save as Personal and add changes to this tab that will be seen only by you. Learn more ›
×
You can save this tab as Personal to edit and correct it or add notes. All changes will be seen only by you. Learn more »
launch autoscroll
font size
0
reset
guitar tuner
edit
Autoscroll
slow
fast
+/-
esc
set tempo
stop
Author
Difficulty
Credit towards the bassline goes to Jaskas (http://www.nicovideo.jp/mylist/4469970).
We salute you good sir for arranging a fun, yet challenging bassline for
an....interesting song! ^_^

I just wanted to put a tab on Ultimate-Guitar so people can find a tab.

Intro
G|----------------------------------------------------------------|
D|----------------------------------------------------------------|
A|---4---6----------4---6-----------------------------------------|
E|-2--------7----2---------7--6s14------1s12s1(Slide Up&Down Fast)|

Chorus:
G|--------------------------------------------|
D|--------------343---------------------------|
A|--------124444---466666689------------------|
E|-222222-------------------77779999----------|

G|-----------------------------------------|
D|-------------343-------------------------|
A|-------124444---466666689----------------|
E|-222222------------------7sDown----------|

Verse:
G|-----------------------------6-6-6-6-6-6-6-6--------------|
D|-4-4-4-4-4-4-4-4-4-4-4-4-4-4-----------------4--4--4--4--4|
A|----------------------------4-4-4-4-4-4-4-4---------------|
E|2-2-2-2-2-2-2-2-2-2-2-2-2-2-----------------2-2-2-2-2-----|

G|-----------------------------6-6-6-6-6-6-6-6----------------|
D|-4-4-4-4-4-4-4-4-4-4-4-4-4-4-----------------4-4-4-4-4------|
A|----------------------------4-4-4-4-4-4-4-4-----------------|
E|2-2-2-2-2-2-2-2-2-2-2-2-2-2-----------------2-2-2-2-2-2sDown|

G|-------|
D|-------|
A|-------|
E|-1s12s1|

Chorus:
G|----------------------------------|
D|--------------343-----------------|
A|--------124444---466666689--------|
E|-222222-------------------77779999|

G|----------------------------------|
D|--------------343-----------------|
A|--------124444---466666689--------|
E|-222222-------------------77779999|

G|--------------6--6--6--6--8--8--8--8--4--4--4--4-|
D|--4--4--4--4-------------------------------------|
A|-------------4--4--4--4--6--6--6--6--2--2--2--2--|
E|-2--2--2--2--------------------------------------|


G|--------------6--6--6--6--8--8--8--8-------|
D|--4--4--4--4-------------------------------|
A|-------------4--4--4--4--6--6--6--6--------|
E|-2--2--2--2--------------------------7sDown|

Note: I think he's doing this. It sounds more complex, but until someone corrects me, 
how I interoperate this.
Listen to the song for how long you have to keep this up.
This is part will just be a guide.

Verse 2:
-Triplets-

G|--------------------------------------------------------------------|
D|--------------------------------------------------------------------|
A|-------------------------4-(444)-(444)-(444)-(444)-(44)-------------|
E|-2(222)-(222)-(222)-(222-------------------------------2-(222)-(222)|

G|-----------------------------6-6-6-6-6-6-6-6----------------|
D|-4-4-4-4-4-4-4-4-4-4-4-4-4-4-----------------4-4-4-4-4------|
A|----------------------------4-4-4-4-4-4-4-4-----------------|
E|2-2-2-2-2-2-2-2-2-2-2-2-2-2-----------------2-2-2-2-2-2sDown|

G|-------|
D|-------|
A|-------|
E|-1s12s1|

Chorus:
G|------------------------------------------------|
D|-----------------------343----------------------|
A|------------124444------466666689---------------|
E|-222222---------------------------------77779999|

G|----------------------------------------|
D|-------------343------------------------|
A|-------124444---466666689---------------|
E|-222222------------------(7~)---(1s12s1)|

-Guitar Solo-
G|--------------------------------------------------------------------------|
D|---------------------------------------------343--------------------------|
A|------124444444466666666---------------124444---466666666-----------------|
E|222222------------------77799999222222-------------------77777777(2~sDown)|

Bass Solo:
G|------------(10)(11)(10)-----------------------|
D|------89(11)------------13----11-9----898------|
A|---s9------------------------------------9sDown|
E|-----------------------------------------------|

-Break-

1s12s1

G|---------------------------------|
D|-------------343-----------------|
A|-------124444---466889988--------|
E|-222222------------------77779797|

G|--------------10---101110-------------------------------|
D|--------891111--11-------9-11-1313151516161513-99119898-|
A|-999999------------------------------------------------9|
E|--------------------------------------------------------|

G|--------------------------------|
D|-----------3-343----------------|
A|-------1244-4---466889986-------|
E|-222222------------------7777976|

G|------------------------------------|
D|-----------3-343--------------------|
A|-------1244-4---466889986-----------|
E|-222222------------------7777976--2~|

Hope you like it.

            
            
Suggest correction
Creating personal tab
Creating personal tab
You can edit any tab online and save it as your Personal.

You can edit, replace or remove any tab part or add personal notes – all changes will be seen only by you.

Personal tabs can be accessed anytime from any device, even offline.
Learn more »
Give kudos to tab author, rate the tab!
1 2 3 4 5
comments
print report bad tab
2 comments total.
0 reply
Spyned 10 Jul 10, 2011 07:52 PM

Darn it if i'm wrong but it's PERFECT!

0 reply
arhat.ironman 10 Oct 17, 2015 06:03 PM

its the best and the hardest music i played ever

guest
You may want to rate the tab now too:
select rating
Wanna post a correction for this tab? Suggest correction