Oops, an error
Loading. Please wait.

Caramelldansen tab

version 3
version 3

Whole song

Interactive

10,216 views 1 this week
2 commentsread comments
1 2 3 4 5
x 3
add to favorites
×
Save as Personal and add changes to this tab that will be seen only by you. Learn more ›
×
You can save this tab as Personal to edit and correct it or add notes. All changes will be seen only by you. Learn more »
launch autoscroll
font size
0
reset
how to read this tab
guitar tuner
edit
Autoscroll
slow
fast
+/-
esc
set tempo
stop
Difficulty
intermediate
E|-------------------------------|-------------------------------|
B|-------------14-14-14-14h16-14-|-14h16-14----------------------|
G|----13-15-16-------------------|----------16-15-15-15-15h16----|
D|-16----------------------------|----------------------------16-|
A|-------------------------------|-------------------------------|
E|-------------------------------|-------------------------------|

E|-------------------------------|-------------------------------|
B|-------------14-14-14-14h16-14-|-14h16-14----------------------|
G|----13-15-16-------------------|----------16-15-15-15-15h16----|
D|-16----------------------------|----------------------------16-|
A|-------------------------------|-------------------------------|
E|-------------------------------|-------------------------------|

E|----------------------------------------------------------------------------------|
B|----------------------------------------------------------------------------------|
G|-15-15-15-15h16-13-15-13-13-13-13h15-11-13-11-11-11-11h13-11h13-11-11-11-10-11-13-|
D|----------------------------------------------------------------------------------|
A|----------------------------------------------------------------------------------|
E|----------------------------------------------------------------------------------|

E|-------------------------------------------------------------------------------|
B|-------------------------------14----------------------------------------------|
G|-15-15-15-15h16-13-15-13-13-13----13-15-11-11-11-11h13-11h13-11-11-11-10-11-13-|
D|-------------------------------------------------------------------------------|
A|-------------------------------------------------------------------------------|
E|-------------------------------------------------------------------------------|

E|----------------------------------|----------------------------|----------|
B|----------------------------------|-14-------------------------|----------|
G|----11-11-11-11-11-11-11-13-15-15-|----11-11-11-11-11-15-13-11-|-10-------|
D|-11-------------------------------|----------------------------|----13-11-|
A|----------------------------------|----------------------------|----------|
E|----------------------------------|----------------------------|----------|

E|----------------------|----------------------------------|
B|----------------------|----------------------------------|
G|----------10-11-------|----11-11-11-11-11-11-11-13-15-15-|
D|-11-11-13-------13-11-|-11-------------------------------|
A|----------------------|----------------------------------|
E|----------------------|----------------------------------|


E|----------------------------------|---------|----------------------|
B|-------------------------14-12----|---------|----------------------|
G|-11-11-11-11-11-11-11-11-------15-|-10-13---|-------------15-13-11-|
D|----------------------------------|-------11|-11-11-11-11----------|
A|----------------------------------|---------|----------------------|
E|----------------------------------|---------|----------------------|

E|-------------------|-------------|-------------------|-------------|
B|-------------------|-------------|-------------------|-------------|
G|-11-13-11-15-13-11-|----15-13-11-|-13-11-13-11-13-15-|----15-13-11-|
D|-------------------|-11----------|-------------------|-13----------|
A|-------------------|-------------|-------------------|-------------|
E|-------------------|-------------|-------------------|-------------|

E|-------------------|-------------|-------------------|-------------|
B|-------------------|-------------|-------------------|-14-12-------|
G|-13-11-13-15-13-11-|----15-13-11-|-13-11-13-11-13-15-|-------15-11-|
D|-------------------|-11----------|-------------------|-------------|
A|-------------------|-------------|-------------------|-------------|
E|-------------------|-------------|-------------------|-------------|

E|-------------------|-------------------|-------------------------|
B|-------------------|-------------------|-------------------------|
G|-11-13-11-15-13-11-|-13-13-13-15-------|-13-13-13-15-------------|
D|-------------------|-------------11-11-|-------------11-11-13-11-|
A|-------------------|-------------------|-------------------------|
E|-------------------|-------------------|-------------------------|

E|-------------------|-------------------------|----------------------------------|
B|----------14-------|-------------------------|----------------------------------|
G|-15-15-15----13-13-|-13-13-13-15-------------|----11-11-11-11-11-11-11-13-15-15-|
D|-------------------|-------------11-11-13-11-|-11-------------------------------|
A|-------------------|-------------------------|----------------------------------|
E|-------------------|-------------------------|----------------------------------|

E|----------------------------|---------|----------------------|
B|-14-------------------------|---------|----------------------|
G|----11-11-11-11-11-15-13-11-|10-------|----------10-11-------|
D|----------------------------|---13-11-|-11-11-13-------13-11-|
A|----------------------------|---------|----------------------|
E|----------------------------|---------|----------------------|


E|----------------------------------|---------|----------------------|
B|----------------------------------|---------|----------------------|
G|-------------------------14-12----|-10-13---|-------------15-13-11-|
D|-11-11-11-11-11-11-11-11-------15-|-------11|-11-11-11-11----------|
A|----------------------------------|---------|----------------------|
E|----------------------------------|---------|----------------------|

E|----------|-------------|------------------|-------------|----------------------|
B|----------|-------------|------------------|-------------|----------------------|
G|-15-15-13-|----15-13-11-|-13-11-13-11-13-15|----15-13-11-|-11-13-11-13-15-13-11-|
D|----------|-11----------|------------------|-13----------|----------------------|
A|----------|-------------|------------------|-------------|----------------------|
E|----------|-------------|------------------|-------------|----------------------|

E|-------------|-------------------|-------------|-------------------|
B|-------------|-------------------|-14-12-------|-------------------|
G|----15-13-11-|-13-11-13-11-13-15-|-------15-11-|-11-13-11-15-13-11-|
D|-11----------|-------------------|-------------|-------------------|
A|-------------|-------------------|-------------|-------------------|
E|-------------|-------------------|-------------|-------------------|

E|----------------------------------------------------------------------------------|
B|----------------------------------------------------------------------------------|
G|-15-15-15-15h16-13-15-13-13-13-13h15-11-13-11-11-11-11h13-11h13-11-11-11-10-11-13-|
D|----------------------------------------------------------------------------------|
A|----------------------------------------------------------------------------------|
E|----------------------------------------------------------------------------------|

E|-------------------------------------------------------------------------------|
B|-------------------------------14----------------------------------------------|
G|-15-15-15-15h16-13-15-13-13-13----13-15-11-11-11-11h13-11h13-11-11-11-10-11-13-|
D|-------------------------------------------------------------------------------|
A|-------------------------------------------------------------------------------|
E|-------------------------------------------------------------------------------|

E|-------------|-------------------|-------------|-----------------------|
B|-------------|-------------------|-------------|-----------------------|
G|-15-15-15-15-|-13-11-13-11-13-15-|-11-11-11-11-|-11-------10----11--13-|
D|-------------|-------------------|-------------|----13-13----13--------|
A|-------------|-------------------|-------------|-----------------------|
E|-------------|-------------------|-------------|-----------------------|

E|----------|-------------------|-------------------------------|
B|----------|-------14-14-12----|----------------14-------------|
G|-15-15-15-|-13-13----------15-|-11-11-11-11 11----16-15-11-10-|
D|----------|-------------------|-------------------------------|
A|----------|-------------------|-------------------------------|
E|----------|-------------------|-------------------------------|

E|-------------------|-------------------------|-------------------|-------------------------|
G|-------------------|-------------------------|----------14-------|-------------------------|
B|-13-13-13-15-------|-13-13-13-15-------------|-15-15-15----13-13-|-13-13-15-13-------------|
D|-------------11-11-|-------------11-11-13-11-|-------------------|-------------11-11-13-11-|
A|-------------------|-------------------------|-------------------|-------------------------|
E|-------------------|-------------------------|-------------------|-------------------------|

E|----------|-------------|------------------|-------------|----------------------|
B|----------|-------------|------------------|-------------|----------------------|
G|-15-15-13-|----15-13-11-|-13-11-13-11-13-15|----15-13-11-|-11-13-11-13-15-13-11-|
D|----------|-11----------|------------------|-13----------|----------------------|
A|----------|-------------|------------------|-------------|----------------------|
E|----------|-------------|------------------|-------------|----------------------|

E|-------------|-------------------|-------------|-------------------|
B|-------------|-------------------|-14-12-------|-------------------|
G|----15-13-11-|-13-11-13-11-13-15-|-------15-11-|-11-13-11-15-13-11-|
D|-11----------|-------------------|-------------|-------------------|
A|-------------|-------------------|-------------|-------------------|
E|-------------|-------------------|-------------|-------------------|

            
            
Suggest correction
Creating personal tab
Creating personal tab
You can edit any tab online and save it as your Personal.

You can edit, replace or remove any tab part or add personal notes – all changes will be seen only by you.

Personal tabs can be accessed anytime from any device, even offline.
Learn more »
Give kudos to tab author, rate the tab!
1 2 3 4 5
comments
print report bad tab
2 comments total.
0 reply
animeguitar8 10 Nov 26, 2009 06:42 AM

this sounds perfect awesome tab

0 reply
SquallLeonhart* 41 Feb 28, 2010 09:03 AM

played it with the song in the background, 5/5 it's perfect although i do have to insert some repeats, but they're understood with the song

guest
Wanna post a correction for this tab? Suggest correction