Oops, an error
Loading. Please wait.

Espuma tab

74 views 1 this week
no commentswrite comment
1 2 3 4 5
3 more votes to show rating
add to favorites
×
Save as Personal and add changes to this tab that will be seen only by you. Learn more ›
×
You can save this tab as Personal to edit and correct it or add notes. All changes will be seen only by you. Learn more »
launch autoscroll
font size
0
reset
how to read this tab
guitar tuner
edit
Autoscroll
slow
fast
+/-
esc
set tempo
stop
espuma.
INTRO x2
         F               LAm        SOL                SOL   FA
1----------------------------------------------0-----------------
2--------------------------1-----------------3-------------------
3-------2-------2--------2-----------4-----2------------4-------2
4-----3-------3--------2-----------5-----0------------5-------3--
5---3-------2--------0-----------5------------------5-------3----
6-1----------------------------3------------------3-------1------
           SOL
1-----------3----------------------
2---------3------------------------
3-------0--------------------------  INTRO dos veces
4-----0----------------------------
5---2------------------------------
6-3--------------------------------

CORO:

y una luz que al final quema todo lo demas

      FA              MI5           RE5              DO5
1-------------------------------------------------------------
2-------------------------------------------------------------
3------------------------------------------------------------
4-3-3-3-3-3-3-3--9-9-9-9-9-9-9--7-7-7-7-7-7-7--5-5-5-5-5-5-5-
5-3-3-3-3-3-3-3--7-7-7-7-7-7-7--5-5-5-5-5-5-5--3-3-3-3-3-3-3-
6-1-1-1-1-1-1-1----------------------------------------------

                     LA5            SOL5              DO5
1-------------------------------------------------------------
2-------------------------------------------------------------
3-------------------------------------------------------------
4-3-3-3-3-3-3-3--7-7-7-7-7-7-7--5-5-5-5-5-5-5--5-5-5-5-5-5-5--
5-1-1-1-1-1-1-1--7-7-7-7-7-7-7--5-5-5-5-5-5-5--3-3-3-3-3-3-3--
6----------------5-5-5-5-5-5-5--3-3-3-3-3-3-3-----------------

PUENTE
1----8------8------8------8-----8-----8--------------------
2------8------8------8------8-----8-----8------------------
3--------10-----10-----10-----9-----9-----9-------------------
4----------------------------------------------------
5----------------------------------------------------
6----------------------------------------------------


TOCA ACORDES DE EL CORO EN ACUSTICA

Agítame hasta que haga espuma
Has que me eleve como pluma
Hasta que duela, hasta que sangre
Hasta que de calambre
Y desplumarnos sin aliento
Finalizando nuestro encuentro
Esa es la imagen que me llevo, para verte de nuevo

CORO:

Y una luz que al final  quema todo lo demás
Que desdobla el espacio y al tiempo
Y me tiene en este momento
Una luz y después es lo único que vez
Yo te reto a que llegue primero
Hasta el fondo del agujero hasta la luz


EN ESTA PARTE TOCA EL INTRO PERO EN VEZ DE TERMINAR CON SOL
TERMINA CON FA

ESTROFA

Sabes que si pierdes te espero
Como a mí también me espera lo que quiero
En algún lugar entre el infinito y el cero
Seguro que me espera lo que quiero
(Solo son ondas, solo son rayos, solo son ecos)

CORO

FINAL

HASTA LA LUZ

MIENTRAS SE TOCA EL FA Y EL MI MENOR
1--------------------------------------------------------------
2----6----5----6----5----6----5----6----88888------------------
3--------------------------------------------------------------
4--------------------------------------------------------------
5--------------------------------------------------------------
6--------------------------------------------------------------

FINAL
DISTORCION
TOCALO DOS VECES (2x)

1------------------------------------------
2----6-6-6-6-6-6-9-9-9-9-9-9-10-10-10-10-10-10-8-8-8-8-8-8-8-10-11-
3------------------------------------------
4------------------------------------------
5------------------------------------------
6------------------------------------------

1--------------------------------------------------------------
2-11-11-11-11-11-14-14-14-14-14-14-15-15-15-15-15-15-12-12-12-12-12-
3-------------------------------------------------------------
4--------------------------------------------------------------
5---------------------------------------------------------------
6---------------------------------------------------------------


CDC LOS MEJORES
(HECHO POR MI)

MR BABY SISTER PROXIMAMENTE
(TENGO QUE ECHALE BASTANTE OIDO)

            
            
Suggest correction
Creating personal tab
Creating personal tab
You can edit any tab online and save it as your Personal.

You can edit, replace or remove any tab part or add personal notes – all changes will be seen only by you.

Personal tabs can be accessed anytime from any device, even offline.
Learn more »
Give kudos to tab author, rate the tab!
1 2 3 4 5
comments
print report bad tab
guest
Wanna post a correction for this tab? Suggest correction