Oops, an error
Loading. Please wait.

The Boxer tab

3,386 views 3 this week
3 commentsread comments
1 2 3 4 5
x 4
add to favorites
×
Save as Personal and add changes to this tab that will be seen only by you. Learn more ›
×
You can save this tab as Personal to edit and correct it or add notes. All changes will be seen only by you. Learn more »
launch autoscroll
font size
0
reset
how to read this tab
guitar tuner
edit
Autoscroll
slow
fast
+/-
esc
set tempo
stop
Author
e-|-0--0--2h0--0--0--3h0--0--0--5h0--3h0--2h0--
b-|--------------------------------------------
g-|--------------------------------------------Keeps 
d-|--------------------------------------------Repeating
a-|--------------------------------------------
e-|--------------------------------------------

e-|-strum-along-with-song--|
b-|--3----3--3--3--3-------|
g-|--2----2--2--2--0-------|
d-|--2----3--2--2--x-------|
a-|--0----0--3-----2-------|
e-|----------------3-------|

Chorus is same progression of these chords.

the electric guitar part of the song 
e-|-3--1--0-----|
b-|----------3--|
g-|-------------|
d-|-------------|
a-|-------------|
e-|-------------|

            
            
Suggest correction
Creating personal tab
Creating personal tab
You can edit any tab online and save it as your Personal.

You can edit, replace or remove any tab part or add personal notes – all changes will be seen only by you.

Personal tabs can be accessed anytime from any device, even offline.
Learn more »
comments
print report bad tab
3 comments total.
0 reply
aliisamae 25 Apr 27, 2003 08:00 PM

hmm the first riff starts on D, i believe. not E. try this:

e-|-----0-----3-----5-5-3-3-2-2--
b-|-3-3--3-3-3-3-3-3-----------3-

i believe the first chord is a D, then it goes through some combination of D's, A's, and G's.. i don't really have time to figure it out right now, but I hope this helps somewhat.

0 reply
aliisamae 25 Apr 27, 2003 08:00 PM

aack they screwed up the formatting.. lemme try again:

e-----0---------3---------5-5-3-3-2-2--
b-3-3-----3-3-3-----3-3-3-------------3

0 reply
palmtrees82 30 Jul 02, 2007 01:24 PM

no comment

guest
You may want to rate the tab now too:
select rating
Wanna post a correction for this tab? Suggest correction