Oops, an error
Loading. Please wait.

No Love Lost bass

version 2
version 2

Whole song

Interactive

by Carcass
214 views 1 this week
no commentswrite comment
1 2 3 4 5
3 more votes to show rating
add to favorites
×
Save as Personal and add changes to this tab that will be seen only by you. Learn more ›
×
You can save this tab as Personal to edit and correct it or add notes. All changes will be seen only by you. Learn more »
launch autoscroll
font size
0
reset
guitar tuner
edit
Autoscroll
slow
fast
+/-
esc
set tempo
stop
Band: Carcass
Song: No Love Lost (Studio version) 
Album: Heartwork
Tuning: B standard BEAD, but for a five string BEADG

NOTE: This is the studio version of the song No love lost and it is the closest i can get it to
the bass master track that Jeff Walker played on the album,
if there is something off please leave a comment.                  
The song was recored with a five string bass but I tabbed it out on a four string
but it can be played on both.

[the song starts off with a slide from the 12th fret on the low B]


[Intro\Chrous]

D|------------------------------|
A|----------------------------7-|
E|-----------3--------5-----7---| X4
B|-0-2-2-2-2----5/7-------8-----|

[4th ending for chours]
D|------------------|
A|------------------|
E|-3------5-----7---|
B|----5/7---7-5---5-|


[Verse]

D|-------------------------------------------|---------------------------------------------|
A|-------------------------------------------|---------------------------------------------|
E|-------------------------------------------|---------------------------------------------| X6
B|-0-2-2-2-2-0-3-3-3-3-0-2-2-2-2/3-3/5-5/6-6-|-0-2-2-2-2-0-1-1-1-1-0-2-2-2-2/3-3/5-5/6-6\5-|


[Pre chorus]
D|----------------------------------------------|
A|----------------------------------------------|
E|----------------------------------------------|
B|-4444--444--454-3333--333--353-6666--666--666-|

[Ending 1 for Pre Chorus]
D|----------------------|
A|----------------------|
E|------4/5-------------|
B|-5555-------5-4---2\1-|


[play Verse] 
[play Pre Chrous with Ending 1] 
[play Intro\chrous with 4th Ending] X4
[play Verse] X2


[Play Pre chrous with Ending 2] 

D|----------------------|
A|----------------------|
E|------4/5---6/7-------|
B|-5555-------------2-1-|


[play Intro\Chrous with 4th Ending] X4


[Breakdown 1]
D|-------------------------------------------------|
A|-------------------------------------------------|
E|-------------------------------------------5-----|
B|-0-2-2-2-2--2-2-0-0--0-0-0-2/3-3-3-3-0-5-6---6-1-|

D|---------------------------------------------------|
A|---------------------------------------------------|
E|-----------------------------------0-2-3-0-3-2-0---|
B|-0-2-2-2-2--2-2-0-0--0-0-0-2/3-3-3---------------3-|

[Breakdown 2]
D|------------------------------------------------|
A|------------------------------------------------|     \
E|------------------------------------------------|      \
B|-0-2-2-2-2--2-2-0-0--0-0-0-2/3-3-3-3-0-0--0-0-0-|       \
                                                           X2
D|---------------------------------------------------|    /
A|---------------------------------------------------|   /
E|---------------------------------------------5-----|  /
B|-0-2-2-2-2--2-2-0-0--0-0-0-2/3-3-3-3-3-0-5-6---6-1-|



[Play Pre chorus with Ending 3]

D|--------------|
A|--------------|
E|--------------|
B|-5555-----2-1-|


[play Intro\chrous with 4th ending] X8


[Ending of song] 

D|------------|
A|------------|
E|------------|
B|-0-2-2-2-2--| 



************************************

| /  Slide up
| \  Slide down

************************************

            
            
Suggest correction
Creating personal tab
Creating personal tab
You can edit any tab online and save it as your Personal.

You can edit, replace or remove any tab part or add personal notes – all changes will be seen only by you.

Personal tabs can be accessed anytime from any device, even offline.
Learn more »
Give kudos to tab author, rate the tab!
1 2 3 4 5
comments
print report bad tab
guest
You may want to rate the tab now too:
select rating
Wanna post a correction for this tab? Suggest correction