Oops, an error
Loading. Please wait.

Acquaforte tab

294 views 1 this week
no commentswrite comment
1 2 3 4 5
3 more votes to show rating
add to favorites
×
Save as Personal and add changes to this tab that will be seen only by you. Learn more ›
×
You can save this tab as Personal to edit and correct it or add notes. All changes will be seen only by you. Learn more »
launch autoscroll
font size
0
reset
how to read this tab
guitar tuner
edit
Autoscroll
slow
fast
+/-
esc
set tempo
stop
1°guitarra
     Q.     E  Q    E  E     E  Q    E  Q    E  E     E  Q    E  Q    E  E
E||---------6--7----6--7--|--9---------------------|--6---------------------|
B||-----------------------|-----9----7--9----7--9--|-----6-------6----7--9--|
G||-----------------------|------------------------|----------8-------------|
D||-----------------------|------------------------|------------------------|
A||-----------------------|------------------------|------------------------|
E||-----------------------|------------------------|------------------------|


  Q    E  E  Q    E  E     H
--6---------------------|-----------||
-------9--7--9----7--6--|--7--------||
------------------------|-----------||
------------------------|-----------||
------------------------|-----------||
------------------------|-----------||


2°guitarra

             tremolo.................................................
E||-------|--------------------|--------------------|--------------------|
B||-------|--6--------4--------|--3-----------------|--------------------|
G||-------|--------------------|-----------4--------|--3--------1--------|
D||-------|--------------------|--------------------|--------------------|
A||-------|--------------------|--------------------|--------------------|
E||-------|--------------------|--------------------|--------------------|


  Q
-------||
-------||
-------||
--4----||
-------||
-------||

Acordes de la intro:

 DO#      RE#m7      LA#7     SI         FA#         DO#    FA#  DO#7  FA#m


         FA#m       FA#7         SIm           DO#7              FA#m
Es media noche. El cabaret despierta. Muchas mujeres, flores y champán.
      FA#7                       SIm               DO#7                  FA#m
Va a comenzar la eterna y triste fiesta de los que viven al ritmo de un gotán.
                  FA#7         SIm           DO#7              FA#m
Cuarenta años de vida me encadenan, blanca la testa, viejo el corazón:
    FA#7  SIm               FA#m              SOL#7   DO#7          FA#
hoy puedo ya mirar con mucha pena lo que otros tiempos miré con ilusión.

            DO#      RE#m7      LA#7/FA SI        FA#/LA# DO#/SOL#  FA#
Las pobres milongas, dopadas de besos, me miran extrañas, con curiosidad.
            DO#      RE#m7      LA#7/FA     SI         FA#         DO#    FA#
Ya no me conocen: estoy solo y viejo, no hay luz en mis ojos... La vida se va


SE REPITE LA INTRO


         FA#m       FA#7       SIm             DO#7              FA#m
Un viejo verde que gasta su dinero emborrachando a Lulú con el champán
     FA#7                        SIm               DO#7                FA#m
hoy le negó el aumento a un pobre obrero que le pidió un pedazo más de pan.
                FA#7         SIm             DO#7                   FA#m
Aquella pobre mujer que vende flores y fue en mi tiempo la reina de Montmartre
      SIm                      FA#m
me ofrece, con sonrisa, unas violetas

           SOL#7     DO#7         FA#
para que alegren, tal vez, mi soledad.

               DO#      RE#m7       LA#7/FA
Y pienso en la vida: las madres que sufren,


 SI        FA#/LA#  DO#/SOL#   FA#

los hijos que vagan sin techo ni pan,
             DO#       RE#m7       LA#7/FA
vendiendo "La Prensa", ganando dos guitas

 SI               FA#         DO#       FA#

¡Qué triste es todo esto! ¡Quisiera llorar!

            
            
Suggest correction
Creating personal tab
Creating personal tab
You can edit any tab online and save it as your Personal.

You can edit, replace or remove any tab part or add personal notes – all changes will be seen only by you.

Personal tabs can be accessed anytime from any device, even offline.
Learn more »
Give kudos to tab author, rate the tab!
1 2 3 4 5
comments
print report bad tab
guest
Wanna post a correction for this tab? Suggest correction