Oops, an error
Loading. Please wait.

En Mi Mente tab

version 1
version 1

Whole song

22 views 1 this week
no commentswrite comment
1 2 3 4 5
3 more votes to show rating
add to favorites
×
Save as Personal and add changes to this tab that will be seen only by you. Learn more ›
×
You can save this tab as Personal to edit and correct it or add notes. All changes will be seen only by you. Learn more »
launch autoscroll
font size
0
reset
how to read this tab
guitar tuner
edit
Autoscroll
slow
fast
+/-
esc
set tempo
stop
esta es una correccion de mi tab pasada q le faltaron unas cosas
y creo q esta muy bien.

   G         D            Em        C     D
e|-----3---------2-3-2-0-------0---------0---2-3------
B|----3--3-3----3-------0-----0--0-0----1-------------
G|---0----0----2-------------0----0----0----2---------
D|------------0----------------------------0----------
A|-------------------------2---------3----------------
E|--3-------------------------------------------------

   G         D            Em        C     D
e|-----3---------2-3-2-0-------0----------0---2-3------
B|----3--3-3----3-------0-----0--0-------1-------------
G|---0----0----2-------------0----0-----0----2---------
D|------------0-----------------------------0----------
A|-------------------------2-------0h2-3---------------
E|--3--------------------------------------------------

-------------------------------------------------------
Verso 1

Quiero volver contigo otra ves,
Quiero decirte que te amo
Estar junto a ti es como sentir
Que canto en silencio contigo

    G         D           Em          C    D
e|-----3---------2------------0----------0---2-3------
B|----3--3-3----3--3-2-------0--0-0-----1-------------
G|---0----0----2----2-------0----0-----0----2---------
D|------------0----------------------------0----------
A|------------------------2-----------3---------------
E|--3-------------------------------------------------

-------------------------------------------------------

Coro
Coro:
G               D    Em
Yo se que tu me amas
                   C       D       G
que todavía me extrañas como ayer
                   D      Em
el tiempo y la distancia
                C     D       Em
nunca podra alejarme mas de ti
          C      D     Em
yo se que volveras a mi
             C       D    Em D Em C D
y que en mi mente viviras
G             D       Em
te conoci en un rincón justo
      C        D      G
adentro de tu corazon
             D
tu eres mi razon de ser
Em             C       D         Em
y creo que soy yo tu amor tambien
               C        D         Em
el viento mi amor  lleva hacia ti
               C       D  Em    D  Em C D  G D Em C D
y mientras el sol yo te amare

  G         D     Em     C       D
e|3---------2--------0-------0------23-------|
B|3---------3--------0-------1------33-------|
G|0---------2-------0--------0----2-22-------|
D|0---------0------2--------2----0-----------|
A|2---------0-----2----0h2-3-----------------|
E|3---------0--------------------------------|

---------------------------------------------------

Quiero volver contigo otra ves,
Quiero decirte que te amo


  G         D            Em        C     D
e|-----3---------2-----------0----------0----2---2-3-5-3-2-------
B|----3--3-3----3--3-3------0--0-------1----3--------------3-3h5-
G|---0----0----2----2------0----0-----0----2---------------------
D|------------0---------------------------0----------------------
A|-----------------------2-----------3---------------------------
E|--3------------------------------------------------------------

            
            
Suggest correction
Creating personal tab
Creating personal tab
You can edit any tab online and save it as your Personal.

You can edit, replace or remove any tab part or add personal notes – all changes will be seen only by you.

Personal tabs can be accessed anytime from any device, even offline.
Learn more »
Give kudos to tab author, rate the tab!
1 2 3 4 5
comments
print report bad tab
guest
Wanna post a correction for this tab? Suggest correction