Oops, an error
Loading. Please wait.

En Mi Mente tab

version 2
version 2

Whole song

6 views 1 this week
no commentswrite comment
1 2 3 4 5
3 more votes to show rating
add to favorites
×
Save as Personal and add changes to this tab that will be seen only by you. Learn more ›
×
You can save this tab as Personal to edit and correct it or add notes. All changes will be seen only by you. Learn more »
launch autoscroll
font size
0
reset
how to read this tab
guitar tuner
edit
Autoscroll
slow
fast
+/-
esc
set tempo
stop
       Ahi les va esta kanzion k sake por k una amiga me la pidio (la nonita) y ps
la mando pk me gusto mucho ahi se ven eh

intro:
E|-----4------------------------------------------------------|
B|---4---4---4------8-9-8h9p8-6--------6------------6----8-9--|
G|----------------8-------------5----5---5---5----6-----------|
D|---------6--------------------------------------------------|
A|--------------6------------------3-------3----4------6------|
E|-4----------------------------------------------------------|

la segunda parte del intro es kasi igual nomas k kon unos arreglitos
E|-----4------------------------------------------------------|
B|---4---4---4------8-9-8-6---------6---------------6------8-9|
G|----------------8----------5----5---5-----------6-----------|
D|---------6--------------------------------------------------|
A|--------------6---------------3-------3---1/3-4------4/6----|
E|-4----------------------------------------------------------|

 aki empieza la letra:
     kiero volver  contigo otra vez   y kiero decirte k t amo
E|-----4------------------------------------------------------|
B|---4---4---4------8-----8------6-----6-------6----8-9-------|
G|----------------8---8--------5---5--------6-----------------|
D|---------6--------------------------------------------------|
A|--------------6-------6----3-------3----4------6------------|
E|-4----------------------------------------------------------|

   estar junto a ti es como sentir k kanto en silencio kontigo
E|-----4-----------------------------------------------------|
B|---4---4---4------8-----8------6-----6-------6----8-9------|
G|----------------8---8--------5---5--------6----------------|
D|---------6-------------------------------------------------|
A|--------------6-------6----3-------3----4------6-----------|
E|-4---------------------------------------------------------|


G#              D#
yo se que tu me amas
Fm               C#    D#    G#
que todavia me extañas como ayer
                D#
el tiempo y la distancia
Fm             C#       D#     Fm
nunca podra alejarme de mas de ti

           D#        Fm
yo se que volveras a mi
             D#       G#   D#  Fm  C#  D#  G#
y que en mi mente viviras

G#             D#
te conoci en un rincon
Fm            C#    D#
justo adentro de tu corazon
G#           D#
tu eres mi razon de ser
Fm            C#        D#     Fm
y creo que soy io tu amor tambien

Fm            D#               Fm
el viento mi amor lleva hacia a ti
              D#         G#
y mientras mi sol yo te amare

D# Fm C# D#

kon rasgueo mas rapido
G# D# Fm C# D#
G# D#

|-------1---------------------------------------------------------------|
|-------1---------6------8-9--------------------------------------------|
|-------1---------6------8----------------------------------------------|
|-----3---------6------8------------------------------------------------|
|---3-----1/3-4------6--------------------------------------------------|
|-1---------------------------------------------------------------------|

   kiero volver  contigo otra vez   y kiero decirte k t amo
E|-----4----------------------------------------------------------------|
B|---4---4---4------8-----8------6-----6-------6----8-9-11-8h9-8-4-4/6--|
G|----------------8---8--------5---5--------6---------------------------|
D|---------6------------------------------------------------------------|
A|--------------6-------6----3-------3----4------6----------------------|
E|-4--------------------------------------------------------------------|

Nota: si se les dificultan los sostenidos solo pongan un capo en el traste N°1
      o bajen medio tono la guitarra

dedikada para la gente del cobach reforma del 203 vesp.

      lA MúSikA kONStitUYE UNA REVElACióN MáS AltA QUE NiNGUNA filOSOfíA (lUdWiNG VAN BEEthOVEN)
     POR k ES MEjOR tOkAR UNA kANZiON kON El kORAZON (io)

            
            
Suggest correction
Creating personal tab
Creating personal tab
You can edit any tab online and save it as your Personal.

You can edit, replace or remove any tab part or add personal notes – all changes will be seen only by you.

Personal tabs can be accessed anytime from any device, even offline.
Learn more »
Give kudos to tab author, rate the tab!
1 2 3 4 5
comments
print report bad tab
guest
Wanna post a correction for this tab? Suggest correction