Oops, an error
Loading. Please wait.

Ayrampito tab

52 views 1 this week
no commentswrite comment
1 2 3 4 5
3 more votes to show rating
add to favorites
×
Save as Personal and add changes to this tab that will be seen only by you. Learn more ›
×
You can save this tab as Personal to edit and correct it or add notes. All changes will be seen only by you. Learn more »
launch autoscroll
font size
0
reset
how to read this tab
guitar tuner
edit
Autoscroll
slow
fast
+/-
esc
set tempo
stop
Esta cancion es super shv!!Se la dedico a una pérsona muy especial
q se ncuentra en chiclayo..quiero q sepa q la quiero mushoo..
espero algun dia estar junto a ella...TQM JESSICA
Chiclayo - Peru - Cusco...Solo Quiero q me quieras Musho!!!

Sugerencias y/o Pedi2 trulo_03@

Estoy muy triste en la vida malay mi destino ayrampito
C     G   C            G C                        E  Am
Estoy muy triste en la vida malay mi destino ayrampito
C     G   C            G C                        E  Am
Como quisiera tomar chichita de tus flores
C                            F      G  C
y asi podria tener el nectar del olvido
                                  E  Am


Desde muy joven en la vida andaba con el alma ayrampito
C     G   C           G C                          E  Am
Desde muy joven en la vida andaba con el alma ayrampito
C     G   C           G C                          E  Am
Tantas traiciones tantas mentiras he tenido
C                                 F    G  C
ya no quisiera amar a nadie en la vida
                                  E  Am

Fuga: ....PARA TI JESSICA TE CANTO CON AMOR....


Hay ayrampito,ayrampo tu nomas sabes mi dolor
C             G    C           F     G    C
el dolor que estoy llevando aqui dentro de mi pecho
                   G     C                 E     Am


E:----------------------|------------------|
B:-3h5-5555-3-1-1h3-3-1-|-1-1------3-5-5s8-|
G:----------------------|-----2-2-2--------|
D:----------------------|------------------|
A:----------------------|------------------|
E:----------------------|------------------|

E:----------------------|--------------------|
B:-3h5-5555-3-1-1h3-3-1-|-1-1-------1-1------|
G:----------------------|-----0-0-0-----1s2--|
D:----------------------|--------------------|
A:----------------------|--------------------|
E:----------------------|--------------------|

E:-------------------------|-------------------------|
B:------------------1-0----|-------------------------|
G:---0-1-2-1-2-1-2-1---1-2-|--------------------0-1-2|
D:-2-----------------------|-3-2-0---------0-1-2-----|
A:-------------------------|------3-2-0-2-3----------|
E:-------------------------|-------------------------|

Saludos pa mis patas del 4VR...grinch artemiX Chovi Drec MArrom
Punkplinas Jere Nero Yerli Etc...Q viva La SAndilla

            
            
Suggest correction
Creating personal tab
Creating personal tab
You can edit any tab online and save it as your Personal.

You can edit, replace or remove any tab part or add personal notes – all changes will be seen only by you.

Personal tabs can be accessed anytime from any device, even offline.
Learn more »
Give kudos to tab author, rate the tab!
1 2 3 4 5
comments
print report bad tab
guest
Wanna post a correction for this tab? Suggest correction