Oops, an error
Loading. Please wait.

Te Me Vas tab

61 views 1 this week
no commentswrite comment
1 2 3 4 5
3 more votes to show rating
add to favorites
×
Save as Personal and add changes to this tab that will be seen only by you. Learn more ›
×
You can save this tab as Personal to edit and correct it or add notes. All changes will be seen only by you. Learn more »
launch autoscroll
font size
0
reset
how to read this tab
guitar tuner
edit
Autoscroll
slow
fast
+/-
esc
set tempo
stop
                    INTRODUCIÓN
E|--9----6----|--6--9---6--|--66---424--|-------------|
B|------------|------------|------------|-------------|
G|------------|------------|------------|-------------|
D|------------|------------|------------|-------------|


TAL  VEZ  NO SUPE                        since           que no eras
          ENTENDER  de tus    palabras     ridad decias  nada sin mi
E|------|----------|----------|---------/--------/------/---------/
B|-2-2--|--22------|-11-------|-1---77--/-7 6-22-/-212-/-212-6424-/
G|--3-- |-----333--|--------- |---------/--------/-----/----------/
D|------/----------|----------|-------- |--------/---- |----------/
                 HOY ME      LLUVIA DE    QUE CAEN
   QUIZAS       TOQUE PAGAR   LAGRIMAS     SIN PARAR
E|----------  |------------|---------  -|------------|
B|--2---------|----------  |-11 1?--777 |-77--6-6--22|
G|-----3-6----|-666---333--|-------- ---|------------|
D|------------|------------|------------|------------|

   DECIRLE      QUE AL IRSE  SE ME APAGA EL MUNDO
E|------------|------------|------------|------------|
A|--212-------|-212--------|---2424-----|--6---4-242-|
D|------------|------------|------------|------------|
G|------------|------------|------------|------------|


   TE VAS        TE ME VAS   QUIEN TE ARRANCA DE MI
E|------------|------------|------------|------------|
B|-66----2----|-677---4----|------------|------------|
G|------------|------------|--- -33-5---|--8--6------|
D|------------|------------|--6---------|------------|

    TE VAS       TE ME VAS    FORMO PARTE DE TI
E|------------|------------|------------|------------|
B|--66---2----|--677--4----|------------|------------|
G|------------|------------|------33?5--|--8--6------|
D|------------|------------|--6---------|------------

            
            
Suggest correction
Creating personal tab
Creating personal tab
You can edit any tab online and save it as your Personal.

You can edit, replace or remove any tab part or add personal notes – all changes will be seen only by you.

Personal tabs can be accessed anytime from any device, even offline.
Learn more »
Give kudos to tab author, rate the tab!
1 2 3 4 5
comments
print report bad tab
guest
Wanna post a correction for this tab? Suggest correction