Oops, an error
Loading. Please wait.

Wasted bass

version 1
version 1

Whole song

435 views 1 this week
no commentswrite comment
1 2 3 4 5
3 more votes to show rating
add to favorites
×
Save as Personal and add changes to this tab that will be seen only by you. Learn more ›
×
You can save this tab as Personal to edit and correct it or add notes. All changes will be seen only by you. Learn more »
launch autoscroll
font size
0
reset
guitar tuner
edit
Autoscroll
slow
fast
+/-
esc
set tempo
stop
-----------------------------------------------------------------------------
                             Wasted - Carrie Underwood
-----------------------------------------------------------------------------

Tabbed by: Country Bass
E-mail: aaron.white8@education.nsw.gov.au

Really easy song, in the studio version Carrie's bassist puts in a lot of fills 
all over the place but it is hard to hear all of them so I have left them out for 
the sake of beginner bassists

Tuning: Standard

Intro

G|-----------------|
D|-----------------|
A|--------------/9-| x6
E|--3-3-3-3-3-3----|

Verse

G|------------------------------------------------------------------|
D|------------------------------------------------------------------|
A|------------------6-6-6-6-6-6-6-6-3-3-3-3-3-3-3-3-5-5-5-5-5-5-5-5-| x4
E|--3-3-3-3-3-3-3-3-------------------------------------------------|

Chorus

G|------------------------------------------------------------------|
D|------------------------------------------------------------------|
A|----------------------------------6-6-6-6-6-6-6-6-6-6-6-6-6-6-6-6-|
E|--3-3-3-3-3-3-3-3-3-3-3-3-3-3-3-3---------------------------------|

G|------------------------------------------------------------------|
D|------------------------------------------------------------------|
A|--3-3-3-3-3-3-3-3-5-5-5-5-5-5-5-5---------------------------------|
E|----------------------------------3-3-3-3-3-3-3-3-3-3-3-3-3-3-3-3-|

Verse 2

G|------------------------------------------------------------------|
D|------------------------------------------------------------------|
A|------------------6-6-6-6-6-6-6-6-3-3-3-3-3-3-3-3-5-5-5-5-5-5-5-5-| x2
E|--3-3-3-3-3-3-3-3-------------------------------------------------|


Instrumental Break

G|----------------------------------|
D|----------------------------------|
A|----------------------------------|
E|--3-3-3-3-3-3-3-3-3-3-3-3-3-3-3-3-|

Bridge

G|----------------------------------------------|
D|----------------------------------------------|
A|--3----5-------------3----5---------3----3----|
E|------------3------------------3--------------|


Playing Order

Intro
Verse
Chorus
Verse 2
Chorus x2
Instrumental Break
Bridge
Chorus x2

Continue Chorus through fade out



| /  slide up
| \  slide down
| h  hammer-on
| p  pull-off
| ~  vibrato
| +  harmonic
| x  Mute note
=============================================================================

            
            
Suggest correction
Creating personal tab
Creating personal tab
You can edit any tab online and save it as your Personal.

You can edit, replace or remove any tab part or add personal notes – all changes will be seen only by you.

Personal tabs can be accessed anytime from any device, even offline.
Learn more »
Give kudos to tab author, rate the tab!
1 2 3 4 5
comments
print report bad tab
guest
You may want to rate the tab now too:
select rating
Wanna post a correction for this tab? Suggest correction