Oops, an error
Loading. Please wait.

Wasted bass

version 2
version 2

Whole song

276 views 1 this week
no commentswrite comment
1 2 3 4 5
3 more votes to show rating
add to favorites
×
Save as Personal and add changes to this tab that will be seen only by you. Learn more ›
×
You can save this tab as Personal to edit and correct it or add notes. All changes will be seen only by you. Learn more »
launch autoscroll
font size
0
reset
guitar tuner
edit
Autoscroll
slow
fast
+/-
esc
set tempo
stop
Author
Difficulty
0:10
F#|----------------------------------------------------------------------|
C#|-/---7-------7-------7-----------7---7-------7-------7-------7---9h11-|
G#|-----------------------------9----------------------------------------|
D#|----------------------------------------------------------------------|
    + a 1 e + a 2 e + a 3 e + a 4 e + a 1 e + a 2 e + a 3 e + a 4 e + a

F#|-----------------------------------------------------------------|
C#|-----------------------------------------------------------------|
G#|-9-------9-------9-----7h9---9-7h9-------9-------9-------9---7---|
D#|-----------------------------------------------------------------|
    1 e + a 2 e + a 3 e + a 4 e + a 1 e + a 2 e + a 3 e + a 4 e + a

F#|-----------------------------------------------------------------|
C#|---------------------7-------------------------------------------|
G#|-5-------5-----7h9-------9---7-------/-----------------------0---|
D#|-----------------------------------------0---0---0---0---0h2-----|
    1 e + a 2 e + a 3 e + a 4 e + a 1 e + a 2 e + a 3 e + a 4 e + a

0:25
F#|-----------------------------------------------------------------|
C#|-----------------------------------------------------------------|
G#|-0---0-------0---0-------0-------0-------0-------0---0---0-------|
D#|-------------------------------------------------------------0---|
    1 e + a 2 e + a 3 e + a 4 e + a 1 e + a 2 e + a 3 e + a 4 e + a

F#|-----------------------------------------------------------------|
C#|-----------------------------------------------------------------|
G#|-------------------------------------------------------------/---|
D#|-2-------2-------2-------2-------2-------2-------2-------2-------|
    1 e + a 2 e + a 3 e + a 4 e + a 1 e + a 2 e + a 3 e + a 4 e + a

F#|-----------------------------------------------------------------|
C#|---------------------------2h4---2-------2-------2-------2---/---|
G#|-5-------5-------5-------5---------------------------------------|
D#|-----------------------------------------------------------------|
    1 e + a 2 e + a 3 e + a 4 e + a 1 e + a 2 e + a 3 e + a 4 e + a

F#|-----------------------------------------------------------------|
C#|-7---7---7---7---7---7-5h7-5h7-5h7-------7---7---7---7-----------|
G#|-------------------------------------7-------------------7---5---|
D#|-----------------------------------------------------------------|
    1 e + a 2 e + a 3 e + a 4 e + a 1 e + a 2 e + a 3 e + a 4 e + a

0:45
F#|-----------------------------------------------------------------|
C#|-------------------------------------------------------------2---|
G#|-0---0---0---0---0-----------0---0---0---0---0---0---0---0-------|
D#|---------------------0---2---------------------------------------|
    1 e + a 2 e + a 3 e + a 4 e + a 1 e + a 2 e + a 3 e + a 4 e + a

F#|-----------------------------------------------------------------|
C#|-----------------------------------------------------------------|
G#|-------------------------------------------------------------2---|
D#|-2---2---2---2---2---2---0---2---2---2---2---2---2---2---2-------|
    1 e + a 2 e + a 3 e + a 4 e + a 1 e + a 2 e + a 3 e + a 4 e + a

F#|-----------------------------------------------------------------|
C#|-----------------------------7-----------------------------------|
G#|-5---5---5---5---5---5-7h9-------7---\---------------------------|
D#|-----------------------------------------0---0---0---0---0---0---|
    1 e + a 2 e + a 3 e + a 4 e + a 1 e + a 2 e + a 3 e + a 4 e + a

F#|-----------------------------------------------------------------|
C#|---------------------------------7---7---7---7---7---9---7-9-7---|
G#|-0---0---0---0---0---0---0---7---------------------------------7-|
D#|-----------------------------------------------------------------|
    1 e + a 2 e + a 3 e + a 4 e + a 1 e + a 2 e + a 3 e + a 4 e + a

Chorus 1:05
F#|-----------------------------------------------------------------|
C#|-----------------------------------------------------------------|
G#|-0---0---0---0---0---0---0---0---0---0---0---0---0---0-----------|
D#|---------------------------------------------------------0---0---|
    1 e + a 2 e + a 3 e + a 4 e + a 1 e + a 2 e + a 3 e + a 4 e + a

F#|-----------------------------------------------------------------|
C#|-----------------------------------------------------------------|
G#|-------------------------------------------------------------2---|
D#|-2---2---2---2---2---2---2---2---2---2---2---2---2---2---2-------|
    1 e + a 2 e + a 3 e + a 4 e + a 1 e + a 2 e + a 3 e + a 4 e + a

F#|-----------------------------------------------------------------|
C#|-----------------------------------------------------------------|
G#|-5---5---5---5---5---5---5-/-9---7---7---7---7---7---7---7---9---|
D#|-----------------------------------------------------------------|
    1 e + a 2 e + a 3 e + a 4 e + a 1 e + a 2 e + a 3 e + a 4 e + a

F#|-----------------------------------------------------------------|
C#|-7---7---7---7---7---7---7---7---7---7---7---7---7---7h9-7---\---|
G#|-----------------------------------------------------------------|
D#|-----------------------------------------------------------------|
    1 e + a 2 e + a 3 e + a 4 e + a 1 e + a 2 e + a 3 e + a 4 e + a

Verse 1:25
F#|-----------------------------------------------------------------|
C#|-----------------------------------------------------------------|
G#|-0---0---0---0---0-----------0---0---0---0---0---0---0---2---4---|
D#|---------------------0---2---------------------------------------|
    1 e + a 2 e + a 3 e + a 4 e + a 1 e + a 2 e + a 3 e + a 4 e + a

F#|-----------------------------------------------------------------|
C#|-----------------------------------------------------------------|
G#|---------------------4-----------------------------------0---2---|
D#|-2---2---2---2---2-------0---2---2---2---2---2---2---2-----------|
    1 e + a 2 e + a 3 e + a 4 e + a 1 e + a 2 e + a 3 e + a 4 e + a

F#|-----------------------------------------------------------------|
C#|-----------------------------------------------------------------|
G#|-5-------5---5---5-------5---5-/-7-------7-------7-------7---7---|
D#|-----------------------------------------------------------------|
    1 e + a 2 e + a 3 e + a 4 e + a 1 e + a 2 e + a 3 e + a 4 e + a

F#|-----------------------------------------------------------------|
C#|-7---7---7---7---7---7h9-7-------7---7---7---7---7---------------|
G#|-----------------------------7-----------------------7---5---7---|
D#|-----------------------------------------------------------------|
    1 e + a 2 e + a 3 e + a 4 e + a 1 e + a 2 e + a 3 e + a 4 e + a

Chorus 1:46
F#|-----------------------------------------------------------------|
C#|-----------------------------------------------------------------|
G#|-0---0---0---0---0-----------0---0---0---0---0---0---0---0-------|
D#|---------------------0---2-----------------------------------0---|
    1 e + a 2 e + a 3 e + a 4 e + a 1 e + a 2 e + a 3 e + a 4 e + a

F#|-----------------------------------------------------------------|
C#|-----------------------------------------------------------------|
G#|-----------------------------------------------------0---2---4---|
D#|-2-------2---2---2-------2-------2---2---2---2---2---------------|
    1 e + a 2 e + a 3 e + a 4 e + a 1 e + a 2 e + a 3 e + a 4 e + a

F#|-----------------------------------------------------------------|
C#|-------------------------7---------------------------------------|
G#|-5---5---5---5---5---9-------9---7---7---------------------------|
D#|-----------------------------------------0---0---0---0---0---0---|
    1 e + a 2 e + a 3 e + a 4 e + a 1 e + a 2 e + a 3 e + a 4 e + a

F#|-----------------------------------------------------------------|
C#|-----------------------------7---7---7---7---7---7---9---7-------|
G#|-0---0---0---0---0---0---0-----------------------------------7---|
D#|-----------------------------------------------------------------|
    1 e + a 2 e + a 3 e + a 4 e + a 1 e + a 2 e + a 3 e + a 4 e + a

2:06
F#|-----------------------------------------------------------------|
C#|-----------------------------------------------------------------|
G#|-0---0---0---0---0---0---0---0---0---0---0---0---0---2---4-------|
D#|-------------------------------------------------------------0---|
    1 e + a 2 e + a 3 e + a 4 e + a 1 e + a 2 e + a 3 e + a 4 e + a

F#|-----------------------------------------------------------------|
C#|-----------------4---------------4-------------------------------|
G#|---------------------4---0-----------4---0-----------0---2---4---|
D#|-2---2---2---2---------------2---------------2---2---------------|
    1 e + a 2 e + a 3 e + a 4 e + a 1 e + a 2 e + a 3 e + a 4 e + a

F#|-----------------------------------------------------------------|
C#|---------------------7-------------------------------------------|
G#|-5---5---5---5-7h9-------9---7---7---7---------------------------|
D#|-----------------------------------------0---0---0---0---0---0---|
    1 e + a 2 e + a 3 e + a 4 e + a 1 e + a 2 e + a 3 e + a 4 e + a

F#|-----------------------------------------------------------------|
C#|-------------------------------------------------------------2---|
G#|-0-------0---0---0---0---0---0---0---0---0---0---0---2---4-------|
D#|-----------------------------------------------------------------|
    1 e + a 2 e + a 3 e + a 4 e + a 1 e + a 2 e + a 3 e + a 4 e + a

Bridge 2:26
F#|-----------------------------------------------------------------|
C#|-----------------------------------------------------------------|
G#|-2---2---2-------2-------0---2---2---2---2---2---2---2---4-------|
D#|-----------------------------------------------------------------|
    1 e + a 2 e + a 3 e + a 4 e + a 1 e + a 2 e + a 3 e + a 4 e + a

F#|-----------------------------7---6-------------------------------|
C#|---------------------7---7h9-------------------------------------|
G#|-5---------------7h9---------------------------------------------|
D#|-----------------------------------------------------------------|
    1 e + a 2 e + a 3 e + a 4 e + a 1 e + a 2 e + a 3 e + a 4 e + a

F#|-----------------------------------------------------------------|
C#|-----------------------------------------------------------------|
G#|-2-------------------------------------------------------2---/---|
D#|-----------------------------------------------------------------|
    1 e + a 2 e + a 3 e + a 4 e + a 1 e + a 2 e + a 3 e + a 4 e + a

2:41
F#|-------------------------7---6-------9---6-----------------------|
C#|---------------------7-------------------------------------------|
G#|-5-----------5---7h9---------------------------------------------|
D#|---------------------------------------------------------9---\---|
    1 e + a 2 e + a 3 e + a 4 e + a 1 e + a 2 e + a 3 e + a 4 e + a

F#|-----------------------------------------------------------------|
C#|-----------------------------------------------------------------|
G#|-----------------------------------------------------------------|
D#|-3-------------------------------2-------------------------------|
    1 e + a 2 e + a 3 e + a 4 e + a 1 e + a 2 e + a 3 e + a 4 e + a

F#|-----------------------------------------------------------------|
C#|-------------------------------/-7---7---7---7---7---9---7-------|
G#|-0---0---0---0---0---0---0---0-------------------------------7---|
D#|-----------------------------------------------------------------|
    1 e + a 2 e + a 3 e + a 4 e + a 1 e + a 2 e + a 3 e + a 4 e + a

Chorus 2:56
F#|-----------------------------------------------------------------|
C#|-7---7-----------------------------------4-------2---------------|
G#|---------0-------0-----------0---0---0-------0-------4-----------|
D#|---------------------0---2-------------------------------0---0---|
    1 e + a 2 e + a 3 e + a 4 e + a 1 e + a 2 e + a 3 e + a 4 e + a

F#|-----------------------------------------------------------------|
C#|-----------------------------------------------------------------|
G#|-----------------------------------------------------0---2---4---|
D#|-2---2---2---2---2---2---0---2---2---2---2---2---2---------------|
    1 e + a 2 e + a 3 e + a 4 e + a 1 e + a 2 e + a 3 e + a 4 e + a

F#|-----------------------------------------------------------------|
C#|---------------------7-------------------------------------------|
G#|-5---5---5---5-7h9-------9---7---7---7h9-7---7---7-----------0---|
D#|-----------------------------------------------------0---2-------|
    1 e + a 2 e + a 3 e + a 4 e + a 1 e + a 2 e + a 3 e + a 4 e + a

F#|-----------------------------------------------------------------|
C#|-----------------------------7---7---6---6---4---4---2---2---4---|
G#|-0---0---0---0---0---0---0---------------------------------------|
D#|-----------------------------------------------------------------|
    1 e + a 2 e + a 3 e + a 4 e + a 1 e + a 2 e + a 3 e + a 4 e + a

3:16
F#|-----------------------------------------------------------------|
C#|-7---7---------------------------7---7---------------------------|
G#|---------0---0---0---0---0---0-----------0---0---0---2---4-------|
D#|-------------------------------------------------------------0---|
    1 e + a 2 e + a 3 e + a 4 e + a 1 e + a 2 e + a 3 e + a 4 e + a

F#|-----------------------------------------------------------------|
C#|-------------------------4---4---4---2---------------------------|
G#|---------------------4-------------------4---4-0h2p0-----2---4---|
D#|-2---2---2---2---2-----------------------------------2-----------|
    1 e + a 2 e + a 3 e + a 4 e + a 1 e + a 2 e + a 3 e + a 4 e + a

F#|-----------------------------------------------------------------|
C#|-----------------------------------------------------------------|
G#|-5---5---7---7---9---9---9---7---7---7h9p7-----------------------|
D#|---------------------------------------------0---0---0---0---2---|
    1 e + a 2 e + a 3 e + a 4 e + a 1 e + a 2 e + a 3 e + a 4 e + a

F#|------------------------------------------------------------------|
C#|-------------7-----------7---7---7---7h9p7---7---7h9-7h9-11p9-7h9-|
G#|-0---0---0-------0---0--------------------------------------------|
D#|------------------------------------------------------------------|
    1 e + a 2 e + a 3 e + a 4 e + a 1 e + a 2 e + a 3 e + a 4  e + a

3:37
F#|-----------------------------------------------------------------|
C#|-----------------------------------------------------------------|
G#|-0---0---0---0---0-----------0---0---0---0---0---0---2---4-------|
D#|---------------------0---2-----------------------------------0---|
    1 e + a 2 e + a 3 e + a 4 e + a 1 e + a 2 e + a 3 e + a 4 e + a

F#|-----------------------------------------------------------------|
C#|-----------------------------------------------------------------|
G#|-----------------------------------------0---0-------0---2---4---|
D#|-2---2---2---2---2---2---0---2---2---4-----------2---------------|
    1 e + a 2 e + a 3 e + a 4 e + a 1 e + a 2 e + a 3 e + a 4 e + a

F#|-----------------------------------------------------------------|
C#|---------------------7---------------------------------------7---|
G#|-5---5---5---5-7h9-------9---7---7---7---7---7---7---7---7-------|
D#|-----------------------------------------------------------------|
    1 e + a 2 e + a 3 e + a 4 e + a 1 e + a 2 e + a 3 e + a 4 e + a

F#|-----------------------------------------------------------------|
C#|-7---6---6-------------------7---7---6---6-----------------------|
G#|-------------9---9---7---7-------------------9---9---7-----------|
D#|---------------------------------------------------------0---2---|
    1 e + a 2 e + a 3 e + a 4 e + a 1 e + a 2 e + a 3 e + a 4 e + a

3:57
F#|-----------------------------------------------------------------|
C#|---------------------------------------------------------7-------|
G#|-0-------0---0---0---0---0---0---0---0---2---2---4---7-------9---|
D#|-----------------------------------------------------------------|
    1 e + a 2 e + a 3 e + a 4 e + a 1 e + a 2 e + a 3 e + a 4 e + a

F#|-----------------------------------------------------------------|
C#|-----------------------------------------------------------------|
G#|-9-------7-------5---4---2-----------------------0---2---4---5---|
D#|-----------------------------2---2---2---4---4-------------------|
    1 e + a 2 e + a 3 e + a 4 e + a 1 e + a 2 e + a 3 e + a 4 e + a

F#|-----------------------------------------------------------------|
C#|-------------------------------------------------------------7---|
G#|-5---5---5---5---5---5---9---7---7---7---7---7---7---7---7-------|
D#|-----------------------------------------------------------------|
    1 e + a 2 e + a 3 e + a 4 e + a 1 e + a 2 e + a 3 e + a 4 e + a

F#|-----------------------------------------------------------------|
C#|-7---7---7---7---7---7---7---7---7---7---7---7---7h9-7-----------|
G#|---------------------------------------------------------9---7---|
D#|-----------------------------------------------------------------|
    1 e + a 2 e + a 3 e + a 4 e + a 1 e + a 2 e + a 3 e + a 4 e + a

4:18
F#|-----------------------------------------------------------------|
C#|---------------------------------------------------------2-------|
G#|-0---0---0---0---0-----------0---0---0---0---0---2---4-------2---|
D#|---------------------0---2---------------------------------------|
    1 e + a 2 e + a 3 e + a 4 e + a 1 e + a 2 e + a 3 e + a 4 e + a

F#|-----------------------------------------------------------------|
C#|-----------------------------------------------------------------|
G#|-----------------------------------------------------0---2---4---|
D#|-2---2---2---2---2---2---0---2---2---2---2---2---2---------------|
    1 e + a 2 e + a 3 e + a 4 e + a 1 e + a 2 e + a 3 e + a 4 e + a

F#|-----------------11--11------------------9---14--13--14--13--14--|
C#|-------------------------------------7h9-------------------------|
G#|-5---5---5---7h9---------9---7---7-------------------------------|
D#|-----------------------------------------------------------------|
    1 e + a 2 e + a 3 e + a 4 e + a 1 e + a 2 e + a 3 e + a 4 e + a

Tabbed by Dave Vucko

            
            
Suggest correction
Creating personal tab
Creating personal tab
You can edit any tab online and save it as your Personal.

You can edit, replace or remove any tab part or add personal notes – all changes will be seen only by you.

Personal tabs can be accessed anytime from any device, even offline.
Learn more »
Give kudos to tab author, rate the tab!
1 2 3 4 5
comments
print report bad tab
guest
You may want to rate the tab now too:
select rating
Wanna post a correction for this tab? Suggest correction