Oops, an error
Loading. Please wait.

Best tab

version 4
version 4

Interactive

by Cartel
2,227 views 6 this week
no commentswrite comment
1 2 3 4 5
2 more votes to show rating
add to favorites
×
Save as Personal and add changes to this tab that will be seen only by you. Learn more ›
×
You can save this tab as Personal to edit and correct it or add notes. All changes will be seen only by you. Learn more »
launch autoscroll
font size
0
reset
how to read this tab
guitar tuner
edit
Autoscroll
slow
fast
+/-
esc
set tempo
stop
Author
Difficulty
-----------------------------------------------------------------
The Best - Cartel
-----------------------------------------------------------------
Tabbed by: Bair
Email: bair_morritt@hotmail.com

Tuning: Standard

Intro:
e|------8------------8-----------8-----------8--------|
B|----9---9------9-----9-----9------9-----9-----9-----|
G|-10-------10-9---------9-8----------8-7----------7--|
D|----------------------------------------------------|
A|----------------------------------------------------|
E|----------------------------------------------------|

e|------8---------8---------8-------------8-----------|
B|---9----9-----9---9-----9---9---------9---9---------|
G|-6--------6-6-------6-6-------6-6-9-8---------------|
D|----------------------------------------------------|
A|----------------------------------------------------|
E|----------------------------------------------------|

Verse:
e|-------8----------8---------8---------8-------------|
B|----9----9------9---9-----9---9-----9---9-----------|
G|-10--------10-9-------9-8-------8-7-------7---------|
D|----------------------------------------------------|
A|----------------------------------------------------|
E|----------------------------------------------------|
                                                             (X2)
e|------8---------8---------8-------------8-----------|
B|---9----9-----9---9-----9---9---------9---9---------|
G|-6--------6-5-------5-3-------3-3-5-6-------6-------|
D|----------------------------------------------------|
A|----------------------------------------------------|
E|----------------------------------------------------|

e|------8---------8---------8-------------------------|
B|----9---9-----9---9-----9---9-----------------------|
G|-5--------5-3-------3-3-------3---------------------|
D|----------------------------------------------------|
A|----------------------------------------------------|
E|----------------------------------------------------|

Ending:
e|---------8-------8-------8--------------------------|
B|-------9---9---9---9---9---9------------------------|
G|-3-5-6-------5-------3-------(X4)-------------------|
D|-----------------------------------6-(Let Ring)-----|
A|-----------------------------------6----------------|
E|-----------------------------------4----------------|

----------------------------------------------------------------------------
Lyrics:
on a perfect day 
somewhat like today 
we will find each other there 
we will find each other there 
and somewhat like the month we first met 
we can't forget the way i loved you 
but i can't pretend how far we've gone 
and we can not mend what damage has been done 
no, we can not mend what damage is done now 
but then we shall come home and 
become the best ones we could have been 
oh the best we could have been 
oh the best we could have been, oh

            
            
Suggest correction
Creating personal tab
Creating personal tab
You can edit any tab online and save it as your Personal.

You can edit, replace or remove any tab part or add personal notes – all changes will be seen only by you.

Personal tabs can be accessed anytime from any device, even offline.
Learn more »
Give kudos to tab author, rate the tab!
1 2 3 4 5
comments
print report bad tab
guest
You may want to rate the tab now too:
select rating
Wanna post a correction for this tab? Suggest correction