Oops, an error
Loading. Please wait.

Honestly tab

version 4
version 4

Whole song

Interactive

by Cartel
4,612 views 1 this week
no commentswrite comment
1 2 3 4 5
x 3
add to favorites
×
Save as Personal and add changes to this tab that will be seen only by you. Learn more ›
×
You can save this tab as Personal to edit and correct it or add notes. All changes will be seen only by you. Learn more »
launch autoscroll
font size
0
reset
how to read this tab
guitar tuner
edit
Autoscroll
slow
fast
+/-
esc
set tempo
stop
Author
Difficulty
Here yah go good song, this song has a rhythm guitar, lead guitar, and a hamonized 
that the singer plays during the song this is my version of the song it sounds pretty close 
not right anyway enjoi..!

Guitar 1 -Rhythm
Guitar 2 -Lead
Guitar 3 -harmonized (singer)


Intro
Guitar 1
|-------------------|
|--7-6-------6------|
|------8-6-8---8-6--|
|-------------------|
|-------------------|
|-------------------|
|                   |
Guitar 2            |
|--6-4--------------|
|------7-6-4-6-4----|
|----------------6--|
|-------------------|
|-------------------|
|-------------------|
|                   |
Guitar 3            |
|-------------------|
|-------------------|
|-------------------|
|-------------------|
|-------------------|
|-------------------|
|                   |


Guitar 1
|--4x--|
|--4x--|
|--3x--|
|------|
|------|
|------| x31
|      |
Guitar 2
|------------------------------------------|
|------------------------------------------|
|------------------------------------------|
|------------------------------------------|
|--55/77x-13131212x--55/77x-13x-13x-1212~~~|
|--55/77x-13131212x--55/77x-13x-13x-1212~~~| x2
|                                          |
Guitar 3
|------|
|------|
|--5x--|
|--3x--|
|--3x--|
|------| x31



Verse 1
Guitar1
|------------------------------------|
|------------------------------------|
|------------------------------------|
|------------------------------------|
|------------------------------------|  x2
|---55-77--88-77--55-77--8-8-77777---| (play 7th fret silent)
|PM|'' ''  '' ''  '' ''  ' '         |
|                                    |
Guitar 2                             |
|------------------------------------------|
|------------------------------------------|
|------------------------------------------|
|------------------------------------------|
|--55/77x-13131212x--55/77x-13x-13x-1212~~~|
|--55/77x-13131212x--55/77x-13x-13x-1212~~~| x4
|                                          |
Guitar 3 (comes in x3 on guitar 2)         |
|------|
|------|
|--5x--|
|--3x--|
|--3x--|
|------| x31




Pre-Chorus
Guitar 1
|--------------------------------------|
|--------------------------------------|
|--------------------------------------|
|--------------------------------------|
|--3---5---0(0)----5---3---8---888888--|
|--3---5---0(0)----5---3---8---888888--|
PM                             ''''''  |
|                                      |
Guitar 2                               |
|--------------------------------------|
|--------------------------------------|
|--------------------------------------|
|--------------------------------------|
|--5---7---0+------7---5--10---000000+-|
|--3---5---0+------5---3---8---000000+-|
|                                      |
Guitar 3                               |
|--------------------------------------|
|--------------------------------------|
|--------------------------------------|
|--------------------------------------|
|--3---5---0(0)----5---3---8---222222--|
|--3---5---0(0)----5---3---8---222222--|




Chorus
Guitars 1,2,3
|-------------------------------------------------------------------|
|-------------------------------------------------------------------|
|-----------------------------------0-0-0-0-0-0-0-0-0-0-0-0-000000--|
|--0-0000000000-00---0000000000(  )-0-0-0-0-0-0-0-0-0-0-0-0-000000--|
|--7-7777777777-77\5-5555005555-77p-9-9-9-9-9-9-9-9-7-7-7-7-999999--|
|--5-5555555555-77\5-5555555555-77p-9-9-9-9-7-7-7-7-5-5-5-5-777777--|

Pre-Verse
Guitar 3 (alone)
|----------------|------||
|----------------|------||
|--5x-5x-5x-5x-5x|--5x--||
|--3x-3x-3x-3x-3x|--3x--||
|--3x-3x-3x-3x-3x|--3x--||
|----------------|------||
   s  s  s  s  s ( x27  )
Guitar 2         |      |
|----------------|------|--------------------------|
|----------------|------|--------------------------|
|----------------|------|--------------------------|
|----------------|------|--------------------------|
|----------------|13131212x--55/77x-13x-13x-1212~~~|
|----------------|13131212x--55/77x-13x-13x-1212~~~|
                 |      |
Guitar 1         |      |
|----------------|--4x--||
|----------------|--4x--||
|----------------|--3x--||
|----------------|------||
|----------------|------||
|----------------|------||
                 ( x27  )



Verse 2
Guitar 1
|------------------------------------|
|------------------------------------|
|------------------------------------|
|------------------------------------|
|------------------------------------|  x2
|---55-77--88-77--55-77--8-8-77777---| (play 7th fret silent)
|PM|'' ''  '' ''  '' ''  ' '         |
|                                    |
Guitar 2                             |
|------------------------------------------|
|------------------------------------------|
|------------------------------------------|
|------------------------------------------|
|--55/77x-13131212x--55/77x-13x-13x-1212~~~|
|--55/77x-13131212x--55/77x-13x-13x-1212~~~| x4
|                                          |
Guitar 3                                   |
|--6-4--------------6-4-------------6-7-4----------7-8-6---------------|
|------7-6-4-6-4--------7-9-6-4-2---------4--------------7-8-7-5-2-----|
|----------------6----------------6---------2-6-4-------------------6--| x2
|----------------------------------------------------------------------|
|----------------------------------------------------------------------|
|----------------------------------------------------------------------|


USE THESE TO PLAY THE REST OF THE SONG AND THE THE BRIDGE GOES LIKE THIS...


Bridge
Guitar 1
|----------------------------|------------------------|
|----------------------------|------------------------|
|----------------------------|------------------------|
|----------------------------|------------------------|
|----------------------------|------------------------|
|-----------------------53/53|1-11111-22222-5-555555--|
|----------------------------|1-11111-22222-5-555555--| x4
Guitar 2                     |
|----------------------------|
|----------------------------|
|----------------------------|
|----------------------------|
|--1-111111-222222-5-555555--|
|--2-222222-333333-6-666666--| x5
|                            |
Guitar 3                     |
|----------------------------|------------------------|
|----------------------------|------------------------|
|----------------------------|------------------------|
|----------------------------|------------------------|
|-----------------------98/98|1-11111-22222-5-555555--|
|-----------------------98/98|1-11111-22222-5-555555--|


Guitar 1
|----------------------------------------|
|----------------------------------------|
|----------------------------------------|
|----------------------------------------|
|--4--7--8---4--7--8-999999--4--7--8-++++|
|--4--7--8---4--7--8-999999--------------|
|
Guitar 2
|---------------------11~~~~~~~15b~~~~~~~~~(--)|
|--8~~~~///-13~~~~///--------------------------|
|----------------------------------------------|
|----------------------------------------------|
|----------------------------------------------|
|----------------------------------------------|
|                                              |
Guitar 3 (plays same as guitar 1)

Outro (play Verse 2--Guitar 3)

hope you enjoy Please rate this tab !!!

            
            
Suggest correction
Creating personal tab
Creating personal tab
You can edit any tab online and save it as your Personal.

You can edit, replace or remove any tab part or add personal notes – all changes will be seen only by you.

Personal tabs can be accessed anytime from any device, even offline.
Learn more »
Give kudos to tab author, rate the tab!
1 2 3 4 5
comments
print report bad tab
guest
You may want to rate the tab now too:
select rating
Wanna post a correction for this tab? Suggest correction