Oops, an error
Loading. Please wait.

The Perfect Mistake tab

version 1
version 1

Whole song

Interactive

by Cartel
8,315 views 1 this week
4 commentsread comments
1 2 3 4 5
x 3
add to favorites
×
Save as Personal and add changes to this tab that will be seen only by you. Learn more ›
×
You can save this tab as Personal to edit and correct it or add notes. All changes will be seen only by you. Learn more »
launch autoscroll
font size
0
reset
how to read this tab
guitar tuner
edit
Autoscroll
slow
fast
+/-
esc
set tempo
stop
Tabbed by Sean :D

No one tabbed this song yet. It was easy to cover this song..... SO try it :P. Cartel ROCKS \m/

    Intro

    E |--------------------------------------|
    B |--------------------------------------|
    G |-----------7---9---9------------------|
    D |--XXX--00--x---x---x------------------|
    A |--XXX--00--5---7---11-----------------|
    D |--XXX--00-----------------------------|

x2 The 2nd repition has no mute
    E |-------------------------------------------|
    B |-------------------------------------------|
    G |-----------7---9---7-----------------------|
    D |-------00--x---x---x-----------------------|
    A |-------00--5---7---5-----------------------|
    D |-------00----------------------------------|

  Verse 1      (The verses are Palm muted Except 7/5, 7/9, 9/11)

    E |--------------------------------------------------|
    B |--------------------------------------------------|
    G |------7-------5--------------5-------7----9---11--|
    D |------7-x16---5-x16--5-------5-x16---x----x---x---|
    A |------5-------3------5--x16--7-------5----7---9---|
    D |---------------------5----------------------------|

    E |--------------------------------------------------|
    B |--------------------------------------------------|
    G |------7-------5--------------5--------------------|
    D |------7-x16---5-x16--5-------5-x16----------------|
    A |------5-------3------5--x16--7--------------------|
    D |---------------------5----------------------------|


     Pre Chorus

    E |-------------------------------------------|
    B |-------------------------------------------|
    G |-------------------------------------------|
    D |---2----------------5----------------------|
    A |---2----------------5----------------------|
    D |---2----------------5----------------------|

     Chorus

    E |-------------------------------------------|
    B |-------------------------------------------|
    G |-------------------------------------------|
    D |-----0------5-----9-----5------------------|       X2
    A |-----0-X8---5-X8--9-X8--5-X8---------------|
    D |-----0------5-----9-----5------------------|


    E |-------------------------------------------|
    B |-------------------------------------------|
    G |-------------------------------------------|
    D |-----00---55---9999---5555-----------------|
    A |-----00---55---9999---5555-----------------|
    D |-----00---55---9999---5555-----------------|


    E |-------------------------------------------|
    B |-------------------------------------------|
    G |-------------------------------------------|
    D |-----0------5-----9-----5------------------|
    A |-----0-X8---5-X8--9-X8--5-X8---------------|
    D |-----0------5-----9-----5------------------|


Intro

    E |-------------------------------------------|
    B |-------------------------------------------|
    G |-------------7---9---9---------------------|
    D |--------00---x---x---x---------------------|
    A |--------00---5---7---11--------------------|
    D |--------00---------------------------------|

    E |-------------------------------------------|
    B |-------------------------------------------|
    G |-----------7---9---7-----------------------|
    D |-------00--x---x---x-----------------------|
    A |-------00--5---7---5-----------------------|
    D |-------00----------------------------------|

     Verse 2      (The verses are Palm muted)

    E |--------------------------------------------------|
    B |--------------------------------------------------|
    G |------7-------5--------------5-------7----9---11--|
    D |------7-x16---5-x16--5-------5-x16---x----x---x---|
    A |------5-------3------5--x16--7-------5----7---9---|
    D |---------------------5----------------------------|

    E |--------------------------------------------------|
    B |--------------------------------------------------|
    G |------7-------5--------------5--------------------|
    D |------7-x16---5-x16--5-------5-x16----------------|
    A |------5-------3------5--x16--7--------------------|
    D |---------------------5----------------------------|

  Pre Chorus

    E |-------------------------------------------|
    B |-------------------------------------------|
    G |-------------------------------------------|
    D |---2----------------5----------------------|
    A |---2----------------5----------------------|
    D |---2----------------5----------------------|


    Chorus

    E |-------------------------------------------|
    B |-------------------------------------------|
    G |-------------------------------------------|
    D |-----0------5-----9-----5------------------|       X2
    A |-----0-X8---5-X8--9-X8--5-X8---------------|
    D |-----0------5-----9-----5------------------|


    E |-------------------------------------------|
    B |-------------------------------------------|
    G |-------------------------------------------|
    D |-----00---55---9999---5555-----------------|
    A |-----00---55---9999---5555-----------------|
    D |-----00---55---9999---5555-----------------|


    E |-------------------------------------------|
    B |-------------------------------------------|
    G |-------------------------------------------|
    D |-----0------5-----9-----5------------------|
    A |-----0-X8---5-X8--9-X8--5-X8---------------|
    D |-----0------5-----9-----5------------------|


     Bridge

    E |-----------------------------------------------------------------|
    B |-----------------------------------------------------------------|
    G |-----------------------------------------------------------------|
    D |-----77777777777777---1010101010101010101010---------------------|
    A |-----77777777777777---1010101010101010101010---------------------|
    D |-----77777777777777---1010101010101010101010---------------------|


    E |-------------------------------------------|
    B |-------------------------------------------|
    G |-------------7---9---9---------------------|
    D |--------00---x---x---x---------------------|
    A |--------00---5---7---11--------------------|
    D |--------00---------------------------------|


    E |-------------------------------------------|
    B |-------------------------------------------|
    G |-----------7---9---7-----------------------|
    D |-------00--x---x---x-----------------------|
    A |-------00--5---7---5-----------------------|
    D |-------00----------------------------------|

     E |-------------------------------------------------------------------|
    B |--------------------------------------------------------------------|
    G |--------------------------------------------------------------------|
    D |-----77777777777777---1010101010101010101010------------------------|
    A |-----77777777777777---1010101010101010101010------------------------|
    D |-----77777777777777---1010101010101010101010------------------------|

    E |-------------------------------------------|
    B |-------------------------------------------|
    G |-------------7---9---9---------------------|
    D |--------00---x---x---x---------------------|
    A |--------00---5---7---11--------------------|
    D |--------00---------------------------------|

Repeat X4
    E |-------------------------------------------|
    B |-------------------------------------------|
    G |-----------7---9---7-----------------------|
    D |-------00--x---x---x-----------------------|
    A |-------00--5---7---5-----------------------|
    D |-------00----------------------------------|

         Palm Mute

    E |--------------------------------------------------|
    B |--------------------------------------------------|
    G |------5-------5--------------5--------------------|
    D |------5-x16---5-x16--5-------5-x16----------------|
    A |------7-------3------5--x16--7--------------------|
    D |---------------------5----------------------------|


     Chorus

    E |-------------------------------------------|
    B |-------------------------------------------|
    G |-------------------------------------------|
    D |-----0------5-----9-----5------------------|       X2
    A |-----0-X8---5-X8--9-X8--5-X8---------------|
    D |-----0------5-----9-----5------------------|


    E |-------------------------------------------|
    B |-------------------------------------------|
    G |-------------------------------------------|
    D |-----00---55---9999---5555-----------------|
    A |-----00---55---9999---5555-----------------|
    D |-----00---55---9999---5555-----------------|


    E |-------------------------------------------|
    B |-------------------------------------------|
    G |-------------------------------------------|
    D |-----0------5-----9-----5------------------|
    A |-----0-X8---5-X8--9-X8--5-X8---------------|
    D |-----0------5-----9-----5------------------|

            
            
Suggest correction
Creating personal tab
Creating personal tab
You can edit any tab online and save it as your Personal.

You can edit, replace or remove any tab part or add personal notes – all changes will be seen only by you.

Personal tabs can be accessed anytime from any device, even offline.
Learn more »
Give kudos to tab author, rate the tab!
1 2 3 4 5
comments
print report bad tab
4 comments total. Showing first comments.
0 reply
jamesbond0913 10 May 29, 2010 08:18 AM

whats the tuning of this tab?

0 reply
jamesbond0913 10 May 29, 2010 08:22 AM

oh wait never mind i forgot the tuning is on the side haha

0 reply
pto333 10 Aug 26, 2010 09:08 PM

i noticed that in the intro the chord is 9/11 and then in the same part in the verse it changes to 11/9. just want to make sure thats correct, they sound the same to me in the song

guest
You may want to rate the tab now too:
select rating
Wanna post a correction for this tab? Suggest correction