Oops, an error
Loading. Please wait.

Preciso Me Encontrar intro tab

version 1
version 1

Intro

Whole song

by Cartola
7,321 views 57 this week
2 commentsread comments
1 2 3 4 5
x 5
add to favorites
×
Save as Personal and add changes to this tab that will be seen only by you. Learn more ›
×
You can save this tab as Personal to edit and correct it or add notes. All changes will be seen only by you. Learn more »
launch autoscroll
font size
0
reset
how to read this tab
guitar tuner
edit
Autoscroll
slow
fast
+/-
esc
set tempo
stop
Author
Difficulty
Preciso me Encontrar - Cartola (1976)

This is my first tab :) I heard this song in the "City of God" movie, and
immediatly wanted to learn it. The only tab i found was very bad, so I
decided to make my own for future guitarists who want to learn it. 
Some parts may be incorrect; if you have an improvement, 
please e-mail me at crovo@hotmail.no

- Mr Crovo

Tuning: Standard (EADGBe)
Duration: About 50 seconds, start to finish.

e|---------1---------1-----------0-----------------1----0-------|
B|-------3---------3-----------3---3-------------2---2----2-----|
G|-----2---------2-----------0-------0---------2---2----2-------|
D|---0---------------------2-----------2-----2------------------|
A|-------------3---------1-----------------0--------------------|
E|--------------------------------------------------------------|

         (Bassoon starts playing in the background) 
e|-------1---1-----------1-----------------0----------------------------|
B|-------3-------------3---3-------------3---3----------------3---------|
G|-----2---2---2-----2-----------------0-------0------------3---3-------|
D|---0-------------------------------2-----------2--------0-------0-----|
A|-----------------3-----------3-2-1------------------------------------|
E|-----------------------------------------------------3----------------|

e|--------------------------------------------------------------------|
B|-----------------3--------3~--3-----------2----------------2--------|
G|---------------4---4-----4--------------0----0--------0-------------|
D|-------------3-------3--3----3--------2-------------2---2-----------|
A|------------------------------------0-------------------------------|
E|---0-1-2-3-4--------------------------------------3-----------------|

e|-------1--------1-----------------------------|
B|-------3--------3--------3----2----2----2-----|
G|-----2---2----2---2------1----0----0----0-----|
D|---0------------------------------------------|
A|------------3----------2----1----0----4-------|
E|----------------------------------------------|

e|-----------1-----------------1---------------------0---------|
B|-------3---3---3---------3---3---3-------------3-----3-------|
G|-----2---2---2---2-----2---2---2---2-------0-----0-----0-----|
D|---0-------------------------------------2---2---------------|
A|---------------------3-----------------1---------------------|
E|-------------------------------------------------------------|

e|-------------------------------------------------------------|
B|-----0-----0----0----0-----------3----------------2--------2-|
G|-----0---0------0----0-------4-------4----------0--------0---|
D|---------------------------3---3---3---3------2--------2-----|
A|------------------------------------------0--------4---------|
E|---3----1----2-----3----4------------------------------------|

e|-----------1------------------|
B|-------3-------3--------------|
G|-----2---2---2---2------------|
D|---0---------------0----------|
A|------------------------------|
E|------------------------------|

e|------------------------2----------------2-------------------|
B|--------------------1-----1-----------1-----------3----------|
G|------------------2---2-----2-------2-----------2------------|
D|----------------1-------------1---0-----------4--------------|
A|---0-1-2-3-4-5------------------------------3----------------|
E|-------------------------------------------------------------|

e|---------------------------3-----------------------|
B|-----3----3----3----3----3---------3----3----------|
G|-----3----3----3----3----3---3-----3----3----------|
D|---------------------------------------------------|
A|---1----0------------------------------------------|
E|-------------3----2----1---------3----1------------|
                                     (F)
e|-----------0------------0--------------1~~---------|
B|-------------1------------1-----------1------------|
G|-------3-------3------3-----3--------2-------------|
D|-----2---2----------2---------2-----3--------------|
A|-----------------------------------3---------------|
E|---0--------------0---------------1----------------|



If you think something is wrong, post a correction in the comments and i'll credit 
you for it. Thanks

            
            
Suggest correction
Creating personal tab
Creating personal tab
You can edit any tab online and save it as your Personal.

You can edit, replace or remove any tab part or add personal notes – all changes will be seen only by you.

Personal tabs can be accessed anytime from any device, even offline.
Learn more »
comments
print report bad tab
2 comments total.
0 reply
noahfulton 10 Apr 24, 2014 09:07 AM

nice work, beautiful song

+1 reply
odedsweed 10 Oct 23, 2014 11:40 AM

Correction by Oded Sweed

Tuning: Drop C ( CADGBE )
e|---------1---------1-----------0-----------------1----0-------------|
B|-------3---------3-----------3---3-------------2--------2----------|
G|-----2---------2-----------0-------0---------0---0-----------------|
D|---0---------------------2-----------2-----2------------------------|
A|-------------3---------1-----------------0--------------------------|
C|---------------------------------------------------------------------|

(Bassoon starts playing in the background)
e|-----------1-----------1-----------------0---------------------------|
B|-------3------3------3---3-----------3-----3--------------------- --|
G|-----2---2---------2-------------------0------0------------7--------|
D|---0-------------------------------2-----------2--------8-----8-----|
A|-----------------3-----------3-2-1--------------------7---------7---|
C|-----------------------------------------------------7----------------|

e|--------------------------------------------------------------------|
B|------------------------------------------ --2----------------------|
G|-------------------7---9----7-------------0---0-------------6-----|
D|-----------------9------8---9---9-------2--------------5----------|
A|--------------8----------8--8-8-------0-------------7----7--------|
C|---4-5-6-7-8---------------8----------------------7---------------|

e|-------1--------1-------------------------------|
B|-------3--------3--------3----2----2----2-----|
G|-----2---2----2---2------1----0----0----0----|
D|---0--------------------------------------------|
A|------------3----------2----1----0----4-------|
C|------------------------------------------------|

e|-----------1-----------------1---------------------0---------|
B|-------3---3---3---------3---3---3-------------3-----3-----|
G|-----2---2---2---2-----2---2---2---2-------0-----0-----0--|
D|---0-------------------------------------2---2--------------|
A|---------------------3-----------------1--------------------|
C|-------------------------------------------------------------|

e|-------------------------------------------------------------|
B|--------------------------------------2--------2------------|
G|----------------------7------------0--------0---------------|
D|-----8------------9-----9-------2--------2-----------------|
A|----7---7-------8--8--8-8----0-------4--------------------|
C|---7---7--7---8-----8---------------------------------------|

e|-----------1-----------------|
B|-------3-------3-------------|
G|-----2---2---2---2-----------|
D|---0-------------------------|
A|------------------------------|

e|-------------------------2---------------2--------------------|
B|--------------------1-----1-----------1-----------3----------|
G|------------------2---2-----2-------2-----------2------------|
D|--------------0-1-------------1---0-----------4--------------|
A|---0-1-2-3-4--------------------------------3----------------|
C|---------------------------------------------------------------|

e|-----------------------------------------------------|
B|-----3----3----3----3----3----------3----3--------|
G|-----3----3----3----3---3-3--3-----3----3--------|
D|----------------------------------------------------|
A|---1----0-------------------------------------------|
C|-------------7----6----5---------7----5------------|
(F)
e|-----------0-------------0--------------~~---------|
B|--------------------------1------------6------------|
G|-------3----5--3------3-----3-------5-------------|
D|-----2---2----------2---------2----7--------------|
A|-----------------------------------8---------------|
C|---4--------------0---------------5----------------|

Enjoy

Oded Sweed

guest
You may want to rate the tab now too:
select rating
Wanna post a correction for this tab? Suggest correction