Oops, an error
Loading. Please wait.

Everytime We Touch tab

version 3
version 3

Interactive

by Cascada
19,967 views 3 this week
no commentswrite comment
1 2 3 4 5
x 4
add to favorites
×
Save as Personal and add changes to this tab that will be seen only by you. Learn more ›
×
You can save this tab as Personal to edit and correct it or add notes. All changes will be seen only by you. Learn more »
launch autoscroll
font size
0
reset
how to read this tab
guitar tuner
edit
Autoscroll
slow
fast
+/-
esc
set tempo
stop
Cascada - Everytime We Touch
Tuned EADGBE (standard)
Tabbed By Adam Beltran


beginning lyrics
E-----------------------------------------------|
B-----------------------------------------------|
G-----------------------------------------------|
D-8-8/10-10/11-11/15-13-11-10-8-8-8/10-8h10-8\6~|
A-----------------------------------------------|
E-----------------------------------------------|

E-----------------------------------|
B-----------------------------------|
G-----------------------------------|
D-8-8/10-10h11-11/15-13-10-10h13-8~-|
A-----------------------------------|
E-----------------------------------|

E------------------------------------------|
B------------------------------------------|
G-/12-13-12-10-8-6-------------------------|
D------------------10-8-10/13-11-10-11-10~-|
A------------------------------------------|
E------------------------------------------|

E------------------------------|
B------------------------------|
G-/12-13-12-10-8-8/13-13/15-15~|
D------------------------------|
A------------------------------|
E------------------------------|

2nd lyrics

E----------------------------------|
B----------------------------------|
G-13-13-12-12-10-10-12-12-12-12/13-|
D----------------------------------|
A----------------------------------|
E----------------------------------|

E------------------------------------|
B------------------------------------|
G-13-13-12-12-10-10-13-13/15-13-12/10|
D------------------------------------|
A------------------------------------|
E------------------------------------|

E--------------------------------------------|
B--------------------------------------------|
G-13-13-13-12-12-10-10-13--13-12-10-12-12/13~|
D------------------------13------------------|
A--------------------------------------------|
E--------------------------------------------|

E------------------|
B------------------|
G-13---------------|
D---13-13-10h13-13~|
A------------------|
E------------------|

Beat

E----------------------------------|
B----------------------------------|
G-13-13-12-12-10-10-10-12-12-12/13-|
D----------------------------------|
A----------------------------------|
E----------------------------------|

E------------------------------------|
B------------------------------------|
G-13-13-12-12-10-10-13-13/15-13-12/10|
D------------------------------------|
A------------------------------------|
E------------------------------------|

E--------------------------------------------|
B--------------------------------------------|
G-13-13-13-12-12-10-10-13--13-12-10-12--13---|
D------------------------13-----------13-----|
A--------------------------------------------|
E--------------------------------------------|

E--------------------|
B--------------------|
G-13--13-------------|
D---13-13-13-10h13-8~|
A--------------------|
E--------------------|

lyrics slightly different

E---------------------------------------------|
B---------------------------------------------|
G---------------------------------------------|
D-8-8/10-10/11-11/15-13-11-10-8-8-8h10-8h10-6~|
A---------------------------------------------|
E---------------------------------------------|

E-----------------------------------|
B-----------------------------------|
G-----------------------------------|
D-8-8/10-10h11-11/15-13-10-10h13-8~-|
A-----------------------------------|
E-----------------------------------|

E------------------------------------------|
B------------------------------------------|
G-/12-13-12-10-8-6-------------------------|
D------------------10-8-10/13-11-10-11-10~-|
A------------------------------------------|
E------------------------------------------|

E------------------------------|
B------------------------------|
G-/12-13-12-10-8-8/13-13/15-15~|
D------------------------------|
A------------------------------|
E------------------------------|

2nd lyrics again

beat again

lyrics or beat again u choose

end

            
            
Suggest correction
Creating personal tab
Creating personal tab
You can edit any tab online and save it as your Personal.

You can edit, replace or remove any tab part or add personal notes – all changes will be seen only by you.

Personal tabs can be accessed anytime from any device, even offline.
Learn more »
comments
print report bad tab
guest
You may want to rate the tab now too:
select rating
Wanna post a correction for this tab? Suggest correction