Oops, an error
Loading. Please wait.

Everytime We Touch tab

version 5
version 5

Interactive

by Cascada
60,291 views 186 this week
3 commentsread comments
1 2 3 4 5
x 11
add to favorites
×
Save as Personal and add changes to this tab that will be seen only by you. Learn more ›
×
You can save this tab as Personal to edit and correct it or add notes. All changes will be seen only by you. Learn more »
launch autoscroll
font size
0
reset
how to read this tab
guitar tuner
edit
Autoscroll
slow
fast
+/-
esc
set tempo
stop
Author
Difficulty
intermediate
---------------------------------------------------------------------------
                          Everytime We Touch
                            - by Cascada -
        (would have been by me, if she had not beaten me to it lol)
                   all rights and thingamabobs reserved
----------------------------------------------------------------------------

Tabbed by: atgblue1  (youtube name)
Email: if you want to contact me, do it through youtube messages or comments.

Tuning: standard.  this song is from a cover where the guy used a capo on the first
these tabs work for that also.  just put a capo on, and raise every note one number.  
if
play with capo, and the tab says note "3", then you play the fourth fret instead of 
get it?  if not, send me a message via youtube.

as far as timing, since it is not sheet music, the best would be to listen to my vid or
original when you want to know how fast etc.  either that or get a enough people to view
and comment on my vid wanting a lesson or vid.  and then i can do that.  lol


e|--------3----3----2----2----0----0----------------0-----2----------------|
B|-----------------------------------------------3-------------------------|
G|-----------------------------------------0---------------------2---------|
D|--------------------------------------------------------0----------------|
A|---------------------------------3---------------------------------------|
E|-------------------------------------------------------------------------|

e|------2----2----------3----------3----3----2----2----0-------------------|
B|----------------------------3--------------------------3-----------------|
G|----------------0--------------------------------------------------------|
D|--------------------------------------0----------------------------------|
A|-------------------------------------------------------------------------|
E|-----------0-------------------------------------------------------------|

e|---0----------3----------5-----3-----2-----0-----------------------------|
B|--------------3----------7-----5----------------------------0------------|
G|---------0---------0---- 0-----------------------------0-----------------|
D|---------------------------------------------------2---------------------|
A|---5---------------------------------------------------------------------|
E|-------------------------------------------0-----------------------------|

e|-----3----3----3----2----2-p-0-----0----------3--------------------------|
B|----------------------------------------------3------------3-------------|
G|------------------------------------------0----------0-------------------|
D|---------------0---------------------------------------------------------|
A|-----------------------------------3-------------------------------------|
E|-----------------------------------------------------------3-------------|

e|---------------3---2p0h2--------3---------------------3------------------|
B|-------------------------------------------------3-----------------------|
G|---------0---------------------------------0--------------------0--------|
D|----0--------------2------------------2---------------------0------------|
A|--------------------------------2----------------------------------------|
E|------------------------------------------------------3------------------|

e|-------------------------------------------------------------------------|
B|---3-----0h3-----3-------------------------------------------------------|
G|-----------------2-------------------------------------------------------|
D|-----------------0-------------------------------------------------------|
A|---2---------------------------------------------------------------------|
E|-------------------------------------------------------------------------|

e|----------------------------------------0--------------------------------|
B|------------0--------------0----------------0----3--------1--------------|
G|---0h2---------------------0------------------------------0--------------|
D|----------------------2----------2--------------------0----------0-------|
A|-----------------2-------------------------------------------------------|
E|------------0-------------------------------------3----------------------|

e|------------------------------------------------------0------------------|
B|---0----3----------------------------------------------------------------|
G|---0----2----------------2-----2h4p2-----0--------------------0h2p0------|
D|--------0----------0---------------------2----2--------------------------|
A|---------------0-------------------------3-------------------------------|
E|----------------------------------------------------------3--------------|

e|---------------------------------0---------------------------------------|
B|-----0---------------0---------------0----3----------0-------------------|
G|---------------------0-------------------------------0-------------------|
D|----------------2---------2---------------------0----------0-------------|
A|-----------2-------------------------------------------------------------|
E|-----0------------------------------------3------------------------------|

e|----------------------2----------3---------------------------------------|
B|---0h3----------------3----------3----3---------3---------------3--------|
G|---0-------------2----------2---------------2---------------2------------|
D|------------0-------------------------------------------0----------------|
A|-------------------------------------------------------------------------|
E|-------------------------------------------------------------------------|

e|---2--------------2----------3--------------2----------0-----------------|
B|--------3---------3-------------------------3----------3-----------------|
G|-------------2---------2---------------0----------0----------0-----------|
D|-----------------------------------2-------------------------------------|
A|-----------------------------3-------------------------------------------|
E|-------------------------------------------------------------------------|

e|-------------------------------------------------------------------------|
B|---3--------------1---------0----3---------------3---------1-------------|
G|-------------0----0---------0----2--------------------0------------------|
D|--------0---------------0--------0-----------0---------------------------|
A|-----------------------------------------0-------------------------------|
E|---3---------------------------------------------------------------------|

e|--------------------------------2---------3-----------------2------------|
B|---1p0--------------------------3---------------------------3------------|
G|----------------0-------------------0----------------0----------0--------|
D|-----------0--------------0---------------------2------------------------|
A|-------------------------------------------3-----------------------------|
E|---0-----------------2---------------------------------------------------|

e|--0-------------------------3----------5---------5-----------------------|
B|--3---------3---------------3-------------------7------------------------|
G|-------0---------------0---------0-------------7-------------------------|
D|------------------0---------------------------0--------------------------|
A|-------------------------------------------------------------------------|
E|-------------3-----------------------------------------------------------|

e|--------------------5-----------------------------33----22----0----------|
B|--------7--------------------7---------------7----55----33----0----------|
G|--7----------7---------7---------------7---------------------------------|
D|-----------------------------------0-------------------------------------|
A|-------------------------------------------------------------------------|
E|-------------------------------------------------------------------------|

e|--0----------------0----2----------2----2---------3------------3---------|
B|--------------1-------------------------------------------3--------------|
G|--------0---------------------2---------------0--------------------------|
D|------------------------0------------------------------------------------|
A|--3----------------------------------------------------------------------|
E|----------------------------------------0--------------------------------|

e|--3----2----2----0--------0----------3----------5----3----2--------------|
B|---------------------3---------------3----------7----5-------------------|
G|----------------------------------0---------0----------------------------|
D|--0-----------------------------------------------0----------------------|
A|--------------------------3----------------------------------------------|
E|-------------------------------------------------------------------------|

e|----0--------------------3----3----2----2p0----0----------3--------------|
B|-------------------0--------------------------------------3--------------|
G|-------------0-----------------------------------------0----------0------|
D|--------2---------------------0------------------------------------------|
A|-----------------------------------------------3-------------------------|
E|----0--------------------------------------------------------------------|

e|-------------------3----2p0h2----3---------------------------------------|
B|---3----------------------------------------------3----------------------|
G|-------------0------------------------------0----------------------------|
D|--------0---------------0-------------2----------------------------------|
A|---------------------------------2---------------------------------------|
E|---3---------------------------------------------------------------------|

e|----3--------------------------------------------------------------------|
B|-------------------3----0h3----3-----------------------------------------|
G|-------------0-----------------2-----------------------------------------|
D|--------0----------------------0-----------------------------------------|
A|-------------------2-----------------------------------------------------|
E|---3---------------------------------------------------------------------|

e|---33----22----0---------------------------------------------------------|
B|---55----33----0---------------------------------------------------------|
G|-------------------------------------------------------------------------|
D|-------------------------------------------------------------------------|
A|-------------------------------------------------------------------------|
E|-------------------------------------------------------------------------|

e|--0----------------0----2----------2----2---------3----------3-----------|
B|--------------1----------------------------------------3-----------------|
G|--------0---------------------2---------------0--------------------------|
D|------------------------0------------------------------------------------|
A|--3----------------------------------------------------------------------|
E|----------------------------------------0--------------------------------|

e|--3----2----2----0--------0----------3----------5----3----2--------------|
B|---------------------3---------------3----------7----5-------------------|
G|----------------------------------0---------0----------------------------|
D|--0---------------------------------------------0------------------------|
A|----------------------------3--------------------------------------------|
E|-------------------------------------------------------------------------|

e|---0--------------------3----3----2----2p0----0----------3---------------|
B|-------------------0-------------------------------------3---------------|
G|-------------0-----------------------------------------0------0----------|
D|--------2--------------------0-------------------------------------------|
A|----------------------------------------------3--------------------------|
E|---0---------------------------------------------------------------------|

e|-------------------3----2p0h2----3---------------------------------------|
B|---3-----------------------------------------------3---------------------|
G|-------------0--------------------------------0--------------------------|
D|--------0---------------0----------------2-------------------------------|
A|---------------------------------2---------------------------------------|
E|---3---------------------------------------------------------------------|

e|---3---------------------------------------------------------------------|
B|-------------------3----0h3----------------------------------------------|
G|-------------0-------------------2---------------------------------------|
D|--------0------------------------0---------------------------------------|
A|-------------------2-----------------------------------------------------|
E|---3---------------------------------------------------------------------|

 this last part is harmonics
e|----------------------------12----12---------12--------------------------|
B|---------------7----7------------------------------7--------7----7-------|
G|----5----5-------------------------------------------------------------5-|
D|-------------------------------------------------------------------------|
A|-------------------------------------------------------------------------|
E|-------------------------------------------------------------------------|


************************************

| h  Hammer-on
| p  Pull-off

************************************

If you have questions about finger positions etc, then you can also check my vid of it.
is posted on youtube.  just search my name atgblue1 and you will find it on my channel.
if the vid still does not help, send me a message or something and I will see if I can help.

Also, if you gusy want to, then I can post either a video lesson, or just post a much
version where you can see all my finger positions and I will go really slow.  which my
better for the intermediate guitarist.  but I will need comments requesting it and subbs 
do that ! ! ! (on youtube).
also, if you are from youtube, i would appreciate it if you only used the tabs for
anyone else you know, or any other youtubers, if you coudl please refer them to my video to
the tabs, that woudl be great.  after all, it was very tedious to get these tabs put up, 
some recompense would be great.

            
            
Suggest correction
Creating personal tab
Creating personal tab
You can edit any tab online and save it as your Personal.

You can edit, replace or remove any tab part or add personal notes – all changes will be seen only by you.

Personal tabs can be accessed anytime from any device, even offline.
Learn more »
comments
print report bad tab
3 comments total.
0 reply
Jimmaay 21 Jun 10, 2010 09:33 PM

Nice Tabs man!!

+1 reply
illumination 192 Aug 11, 2010 10:33 AM

Absolutely brilliant. We need more tabs of this quality here. I really don't like the ones which are just picking one string at a time. It's like playing piano with right hand only (melody/vocals only). It sounds terrible!

However, there's one bit that sounds slightly off to me:

e|--------------------5-----------------------------33----22----0----------|
B|--------7--------------------7---------------7----55----33----0----------|
G|--7----------7---------7---------------7---------------------------------|
D|-----------------------------------0-------------------------------------|
A|-------------------------------------------------------------------------|
E|-------------------------------------------------------------------------|


The part near the end ("Cause everytime we TOUCH"), I believe it should be

e|--------------------5-----------------------------33----22---------------|
B|--------7--------------------7---------------7----55----33----3----------|
G|--7----------7---------7---------------7---------------------------------|
D|-----------------------------------0-------------------------------------|
A|-------------------------------------------------------------------------|
E|-------------------------------------------------------------------------|


Can't manage to find the accompanying note with it right now though. That mistake also seems to occur somewhere near the beginning to, but it's more obvious in the chorus section.

+1 reply
marcozarate1999 10 Apr 30, 2014 06:05 PM

e|---0----------3----------5-----3-----2-----0-----------------------------|
B|--------------3----------7-----5----------------------------0------------|
G|---------0---------0---- 0-----------------------------0-----------------|
D|---------------------------------------------------2---------------------|
A|---3---------------------------------------------------------------------|
E|-------------------------------------------0-----------------------------|


shoudlnt it be like this?

guest
You may want to rate the tab now too:
select rating
Wanna post a correction for this tab? Suggest correction