Oops, an error
Loading. Please wait.

Breakout tab

2,685 views 1 this week
no commentswrite comment
1 2 3 4 5
2 more votes to show rating
add to favorites
×
Save as Personal and add changes to this tab that will be seen only by you. Learn more ›
×
You can save this tab as Personal to edit and correct it or add notes. All changes will be seen only by you. Learn more »
launch autoscroll
font size
0
reset
how to read this tab
guitar tuner
edit
Autoscroll
slow
fast
+/-
esc
set tempo
stop
Song: Breakout (Live Acoustic Version)
Refer to the song for strumming please :)

Verse 1

Let's go
Follow me outside
And I know it won't be long till
I'm holding your hips tight I know you want to
Leave them all behind
So let's catch a cab down town now
And light the fire up and make it right

E|-------------------------|
B|--------------222--------|
G|----55--666---333--888---|
D|----66--666---333--888---|     Repeat 2 Times
A|----66--444---111--666---|
E|----44-------------------|


Cause There's nobody home tonight
E|----------------|
B|----------------|
G|----6....6------|
D|----6....6------|
A|----4.....4-----|
E|----------------|

CHORUS
Break out and take it to the floor
So I can take you on and give you all the things All the things we're not supposed to do
Break out and take it to the floor
We'll finally be alone just take me home with you tonight

E|-------------------------|
B|--------------222--------|
G|----55--666---333--888---|
D|----66--666---333--888---|     Repeat 2 Times
A|----66--444---111--666---|
E|----44-------------------|

Just you and I
And sing Oh Oh, and sing Oh Oh all night

E|------------------------------|
B|------------------------------|
G|-----66666-----88888----------|
D|-----66666-----88888----------|     Repeat 2 Times
A|-----44444-----66666----------|
E|------------------------------|


Interlude
E|------------------------------|
B|------------------------------|
G|----55555--66666----8888------|
D|----66666--66666----8888------|
A|----66666--44444----6666------|
E|----44444---------------------|


Verse 2 (Same as Verse 1)
Let's go
Cause I'm feeling wild
And I know it won't be long till
I'm touching your skin soft I know you want to
Give it up to tonight oh no
I would never break your heart girl
Just give me one more chance to make it right
There's nobody home tonight

Chorus
Break out and take it to the floor
So I can take you on and give you all the things All the things we're not supposed to do
Break out and take it to the floor
We'll finally be alone just take me home with you tonight
Just you and I
And sing Oh Oh, and sing Oh Oh all night

Breakdown
(Play as verse but listen to the song for strumming)

There's no one home hit the lights
Break out and take it to the floor
So I can take you on and give you all the things All the things we're not supposed to do
Break out and take it to the floor
We'll finally be alone just take me home with you tonight
Just you and I
And sing Oh Oh, and sing Oh Oh all night...

By Aishah

            
            
Suggest correction
Creating personal tab
Creating personal tab
You can edit any tab online and save it as your Personal.

You can edit, replace or remove any tab part or add personal notes – all changes will be seen only by you.

Personal tabs can be accessed anytime from any device, even offline.
Learn more »
Give kudos to tab author, rate the tab!
1 2 3 4 5
comments
print report bad tab
guest
Wanna post a correction for this tab? Suggest correction