Oops, an error
Loading. Please wait.

Hinterland chords

version 4
version 4

Whole song

by Casper
634 views 12 this week
2 commentsread comments
1 2 3 4 5
x 3
add to favorites
×
Save as Personal and add changes to this tab that will be seen only by you. Learn more ›
×
You can save this tab as Personal to edit and correct it or add notes. All changes will be seen only by you. Learn more »
launch autoscroll
font size
0
reset
transpose
0
reset
simplify chords
display chords
guitar tuner
edit
Autoscroll
slow
fast
+/-
esc
set tempo
stop
Author
Difficulty
Strumming
There is no strumming pattern for this song yet. and get +5 IQ
Hinterland - Casper



Intro: 
Am|C|Fmaj|G (x2)      



Verse:
Am                             C
Raus von hier, das Taube spür‘n
                                              Fmaj
Nehmen nie zu viel, bisschen für‘s Bauchgefühl
Fmaj
Die falschen Drogen zu richtigen Zeit
G                                                       Am
Werfen Schatten, wo das Licht nie scheint für kurze Zeit
Am
Und über Nebenstraßen abends
C                                                  Fmaj
Immer Wasser bis zum Hals, lieber Regenparka tragen
Fmaj
Sprachlos, tanzen statt reden
G                                                         Am
So müde von der Stadt, die nie schläft - Bleib in Bewegung
Am                                      C
Hörst du den Chor? Schief und doch schön
C                                            Fmaj
Höhen leicht daneben, wir sind Tiefen gewöhnt
Fmaj 
Mit großen Augen zwischen Bahnschienen und Schrebergärten
G
Arm in Arm singend über Leben die wir nie leben werden
Am                                C
So wie das Ding hier nun mal läuft


C                                              Fmaj
Kleinganovenbeichte mit zwei Fingern über Kreuz
Fmaj
Wir sind Legenden, wir selbst
G
Gemeinsam vor‘m Ende der Welt
G
Willkommen zu Haus‘



Chorus:
Am                             C
Wo jeder Tag aus Warten besteht
C                                 Fmaj 
Und die Zeit scheinbar nie vergeht (vergeht, vergeht)
G                                   
In diesem Hinterland, verdammtes Hinterland


Am                          C      
Wo Gedanken im Wind verwehen         
C                                 Fmaj
Und die Zeit scheinbar nie vergeht (vergeht,vergeht)


G
Geliebtes Hinterland. Willkommen im Hinterland



Verse:
Am                                       C
Immer Steine schmeißen, „Hauptsache laut“
C                                            Fmaj
Für alles zu haben, zu kaum was zu gebrauchen
Fmaj                    
In diesen Hinterwelten getrieben von Kindergeld
G                                                    Am
Wo Taten mehr sagen als Worte, sind die Stille selbst

Am                           C
Man gibt uns gut zu verstehen
C                                                       Fmaj
Die leeren Gläser der Theke sind beste Lupen auf‘s Leben
Fmaj
Unterm Haus der Straßenlaternen um elf


G
Gemeinsam am Ende der Welt
G
Willkommen zu Haus



Chorus:
Am                             C
Wo jeder Tag aus Warten besteht
C                                 Fmaj 
Und die Zeit scheinbar nie vergeht (vergeht, vergeht)
G                                   
In diesem Hinterland, verdammtes Hinterland


Am                          C      
Wo Gedanken im Wind verwehen         
C                                 Fmaj
Und die Zeit scheinbar nie vergeht (vergeht,vergeht)


G
Geliebtes Hinterland. Willkommen im Hinterland



Bridge:
Am        C         Fmaj        G          (Am) 
Ohhhheeooo ohhhheeooo ohhhheeooo ohhhheeooo         (x2)



Chorus:
Am                             C
Wo jeder Tag aus Warten besteht
C                                 Fmaj 
Und die Zeit scheinbar nie vergeht (vergeht, vergeht)
G                                   
In diesem Hinterland, verdammtes Hinterland


Am                          C      
Wo Gedanken im Wind verwehen         
C                                 Fmaj
Und die Zeit scheinbar nie vergeht (vergeht,vergeht)


G
Geliebtes Hinterland. Willkommen im Hinterland




Outro:
Am|C|Fmaj|G (x2)


---------------------------------------------------END----------------------------------------------------------

                     >>Hinweise auf Rechtschreibfehler und Co. sind erwünscht!!!<< 
              
                                                Viel Spaß! =)

            
            
Suggest correction
Creating personal tab
Creating personal tab
You can edit any tab online and save it as your Personal.

You can edit, replace or remove any tab part or add personal notes – all changes will be seen only by you.

Personal tabs can be accessed anytime from any device, even offline.
Learn more »
Give kudos to tab author, rate the tab!
1 2 3 4 5
comments
print report bad tab
2 comments total.
0 reply
xu-xiao1 31 Jan 24, 2016 11:25 PM

Intro:

e|------------------------------------------------------|
b|------------------------------------------------------|
g|--2-2-2-2-2-2-2-2-2-2-2-2-2-2-2-2-2-2-2-2-2-2---------|
D|---2-2-2-2-2-2-2-2-2-2-2-2-2-2-2-2-2-2-2-2-2----------|
A|------------------------------------------------------|
E|------------------------------------------------------|

(2. Gitarre im Chorus)

e|----17---17---17---17---17---15---15---15---15---15---|
b|-17---17---17---17---17---17---17---17---17---17------|
g|------------------------------------------------------|
D|------------------------------------------------------|
A|------------------------------------------------------|
E|------------------------------------------------------|

e|----12---12---12---12---12---15---15---15---15---15---|
b|---------------------------15---15---15---15---15-----|
g|-14---14---14---14---14-------------------------------|
D|------------------------------------------------------|
A|------------------------------------------------------|
E|------------------------------------------------------| (x2)

Outro (Variante 2 = Tabs der 2. Gitarre im Chorus):

e|----17---17---17---17---17---15---15---15---15---15---|
b|-17---17---17---17---17---17---17---17---17---17------|
g|------------------------------------------------------|
D|------------------------------------------------------|
A|------------------------------------------------------|
E|------------------------------------------------------|

e|----12---12---12---12---12---15---15---15---15---15---|
b|---------------------------15---15---15---15---15-----|
g|-14---14---14---14---14-------------------------------|
D|------------------------------------------------------|
A|------------------------------------------------------|
E|------------------------------------------------------| (x2)

Gutes Gelingen! :)

+1 reply
xu-xiao1 31 Jan 25, 2016 12:23 AM

Intro: 

e|------------------------------------------------------|
b|------------------------------------------------------|
g|--2-2-2-2-2-2-2-2-2-2-2-2-2-2-2-2-2-2-2-2-2-2---------|
D|---2-2-2-2-2-2-2-2-2-2-2-2-2-2-2-2-2-2-2-2-2----------|
A|------------------------------------------------------|
E|------------------------------------------------------|

(2. Gitarre im Chorus)

e|----17---17---17---17---17---15---15---15---15---15---|
b|-17---17---17---17---17---17---17---17---17---17------|
g|------------------------------------------------------|
D|------------------------------------------------------|
A|------------------------------------------------------|
E|------------------------------------------------------|

e|----12---12---12---12---12---15---15---15---15---15---|
b|---------------------------15---15---15---15---15-----|
g|-14---14---14---14---14-------------------------------|
D|------------------------------------------------------|
A|------------------------------------------------------|
E|------------------------------------------------------| (x2)

Outro (Variante 2 = Tabs der 2. Gitarre im Chorus):

e|----17---17---17---17---17---15---15---15---15---15---|
b|-17---17---17---17---17---17---17---17---17---17------|
g|------------------------------------------------------|
D|------------------------------------------------------|
A|------------------------------------------------------|
E|------------------------------------------------------|

e|----12---12---12---12---12---15---15---15---15---15---|
b|---------------------------15---15---15---15---15-----|
g|-14---14---14---14---14-------------------------------|
D|------------------------------------------------------|
A|------------------------------------------------------|
E|------------------------------------------------------| (x2)

Gutes Gelingen! :)

guest
You may want to rate the tab now too:
select rating
Wanna post a correction for this tab? Suggest correction